  0
SECTION
  2
HEADER
  9
$ACADVER
  1
AC1012
  9
$DWGCODEPAGE
  3
dos932
  9
$INSBASE
 10
0.0
 20
0.0
 30
0.0
  9
$EXTMIN
 10
0.4894416100455601
 20
0.4902653820932415
 30
-0.0000000349181948
  9
$EXTMAX
 10
144.0134587653603
 20
99.50454747945139
 30
0.0000000814935747
  9
$LIMMIN
 10
0.0
 20
0.0
  9
$LIMMAX
 10
297.0
 20
210.0
  9
$ORTHOMODE
 70
     0
  9
$REGENMODE
 70
     1
  9
$FILLMODE
 70
     1
  9
$QTEXTMODE
 70
     0
  9
$MIRRTEXT
 70
     1
  9
$DRAGMODE
 70
     2
  9
$LTSCALE
 40
15.0
  9
$OSMODE
 70
    37
  9
$ATTMODE
 70
     1
  9
$TEXTSIZE
 40
0.2
  9
$TRACEWID
 40
0.05
  9
$TEXTSTYLE
  7
GOTHIC
  9
$CLAYER
  8
CSLAYER1
  9
$CELTYPE
  6
BYLAYER
  9
$CECOLOR
 62
   256
  9
$CELTSCALE
 40
1.0
  9
$DELOBJ
 70
     1
  9
$DISPSILH
 70
     0
  9
$DIMSCALE
 40
1.0
  9
$DIMASZ
 40
0.18
  9
$DIMEXO
 40
0.0625
  9
$DIMDLI
 40
0.38
  9
$DIMRND
 40
0.0
  9
$DIMDLE
 40
0.0
  9
$DIMEXE
 40
0.18
  9
$DIMTP
 40
0.0
  9
$DIMTM
 40
0.0
  9
$DIMTXT
 40
0.18
  9
$DIMCEN
 40
0.09
  9
$DIMTSZ
 40
0.0
  9
$DIMTOL
 70
     0
  9
$DIMLIM
 70
     0
  9
$DIMTIH
 70
     1
  9
$DIMTOH
 70
     1
  9
$DIMSE1
 70
     0
  9
$DIMSE2
 70
     0
  9
$DIMTAD
 70
     0
  9
$DIMZIN
 70
     0
  9
$DIMBLK
  1

  9
$DIMASO
 70
     1
  9
$DIMSHO
 70
     1
  9
$DIMPOST
  1

  9
$DIMAPOST
  1

  9
$DIMALT
 70
     0
  9
$DIMALTD
 70
     2
  9
$DIMALTF
 40
25.4
  9
$DIMLFAC
 40
1.0
  9
$DIMTOFL
 70
     0
  9
$DIMTVP
 40
0.0
  9
$DIMTIX
 70
     0
  9
$DIMSOXD
 70
     0
  9
$DIMSAH
 70
     0
  9
$DIMBLK1
  1

  9
$DIMBLK2
  1

  9
$DIMSTYLE
  2
STANDARD
  9
$DIMCLRD
 70
     0
  9
$DIMCLRE
 70
     0
  9
$DIMCLRT
 70
     0
  9
$DIMTFAC
 40
1.0
  9
$DIMGAP
 40
0.09
  9
$DIMJUST
 70
     0
  9
$DIMSD1
 70
     0
  9
$DIMSD2
 70
     0
  9
$DIMTOLJ
 70
     1
  9
$DIMTZIN
 70
     0
  9
$DIMALTZ
 70
     0
  9
$DIMALTTZ
 70
     0
  9
$DIMFIT
 70
     3
  9
$DIMUPT
 70
     0
  9
$DIMUNIT
 70
     2
  9
$DIMDEC
 70
     4
  9
$DIMTDEC
 70
     4
  9
$DIMALTU
 70
     2
  9
$DIMALTTD
 70
     2
  9
$DIMTXSTY
  7
STANDARD
  9
$DIMAUNIT
 70
     0
  9
$LUNITS
 70
     2
  9
$LUPREC
 70
     4
  9
$SKETCHINC
 40
0.1
  9
$FILLETRAD
 40
0.0
  9
$AUNITS
 70
     0
  9
$AUPREC
 70
     0
  9
$MENU
  1
ACAD
  9
$ELEVATION
 40
0.0
  9
$PELEVATION
 40
0.0
  9
$THICKNESS
 40
0.0
  9
$LIMCHECK
 70
     0
  9
$BLIPMODE
 70
     1
  9
$CHAMFERA
 40
0.0
  9
$CHAMFERB
 40
0.0
  9
$CHAMFERC
 40
0.0
  9
$CHAMFERD
 40
0.0
  9
$SKPOLY
 70
     0
  9
$TDCREATE
 40
2453482.000000000
  9
$TDUPDATE
 40
2453575.547562245
  9
$TDINDWG
 40
0.0008285185
  9
$TDUSRTIMER
 40
0.0008284028
  9
$USRTIMER
 70
     1
  9
$ANGBASE
 50
0.0
  9
$ANGDIR
 70
     0
  9
$PDMODE
 70
     0
  9
$PDSIZE
 40
0.0
  9
$PLINEWID
 40
0.0
  9
$COORDS
 70
     0
  9
$SPLFRAME
 70
     0
  9
$SPLINETYPE
 70
     6
  9
$SPLINESEGS
 70
     8
  9
$ATTDIA
 70
     0
  9
$ATTREQ
 70
     1
  9
$HANDLING
 70
 22529
  9
$HANDSEED
  5
202
  9
$SURFTAB1
 70
     6
  9
$SURFTAB2
 70
     6
  9
$SURFTYPE
 70
     6
  9
$SURFU
 70
     6
  9
$SURFV
 70
     6
  9
$UCSNAME
  2

  9
$UCSORG
 10
0.0
 20
0.0
 30
0.0
  9
$UCSXDIR
 10
1.0
 20
0.0
 30
0.0
  9
$UCSYDIR
 10
0.0
 20
1.0
 30
0.0
  9
$PUCSNAME
  2

  9
$PUCSORG
 10
0.0
 20
0.0
 30
0.0
  9
$PUCSXDIR
 10
1.0
 20
0.0
 30
0.0
  9
$PUCSYDIR
 10
0.0
 20
1.0
 30
0.0
  9
$USERI1
 70
     0
  9
$USERI2
 70
     0
  9
$USERI3
 70
     0
  9
$USERI4
 70
     0
  9
$USERI5
 70
     0
  9
$USERR1
 40
0.0
  9
$USERR2
 40
0.0
  9
$USERR3
 40
0.0
  9
$USERR4
 40
0.0
  9
$USERR5
 40
0.0
  9
$WORLDVIEW
 70
     1
  9
$SHADEDGE
 70
     3
  9
$SHADEDIF
 70
    70
  9
$TILEMODE
 70
     1
  9
$MAXACTVP
 70
    64
  9
$PINSBASE
 10
0.0
 20
0.0
 30
0.0
  9
$PLIMCHECK
 70
     0
  9
$PEXTMIN
 10
1.000000000000000E+20
 20
1.000000000000000E+20
 30
1.000000000000000E+20
  9
$PEXTMAX
 10
-1.000000000000000E+20
 20
-1.000000000000000E+20
 30
-1.000000000000000E+20
  9
$PLIMMIN
 10
0.0
 20
0.0
  9
$PLIMMAX
 10
12.0
 20
9.0
  9
$UNITMODE
 70
     0
  9
$VISRETAIN
 70
     1
  9
$PLINEGEN
 70
     0
  9
$PSLTSCALE
 70
     1
  9
$TREEDEPTH
 70
  3020
  9
$PICKSTYLE
 70
     3
  9
$CMLSTYLE
  2
STANDARD
  9
$CMLJUST
 70
     0
  9
$CMLSCALE
 40
1.0
  9
$SAVEIMAGES
 70
     1
  0
ENDSEC
  0
SECTION
  2
CLASSES
  0
CLASS
  1
ACDBDICTIONARYWDFLT
  2
AcDbDictionaryWithDefault
  3
AutoCAD 2000
 90
    32768
280
     0
281
     0
  0
CLASS
  1
ACDBPLACEHOLDER
  2
AcDbPlaceHolder
  3
AutoCAD 2000
 90
    32768
280
     0
281
     0
  0
CLASS
  1
LAYOUT
  2
AcDbLayout
  3
AutoCAD 2000
 90
    32768
280
     0
281
     0
  0
CLASS
  1
DICTIONARYVAR
  2
AcDbDictionaryVar
  3
AutoCAD 2000
 90
    32768
280
     0
281
     0
  0
CLASS
  1
LONG_TRANSACTION
  2
AcDbLongTransaction
  3
AutoCAD 2000
 90
    32768
280
     0
281
     0
  0
CLASS
  1
LWPOLYLINE
  2
AcDbPolyline
  3
AutoCAD 2000
 90
    32768
280
     0
281
     1
  0
CLASS
  1
HATCH
  2
AcDbHatch
  3
AutoCAD 2000
 90
    32768
280
     0
281
     1
  0
CLASS
  1
XRECORD
  2
AcDbXrecord
  3
AutoCAD 2000
 90
    32768
280
     0
281
     0
  0
CLASS
  1
LONG_TRANSACTION
  2
AcDbLongTransaction
  3
AutoCAD 2000
 90
    32768
280
     0
281
     0
  0
CLASS
  1
LWPOLYLINE
  2
AcDbPolyline
  3
AutoCAD 2000
 90
    32768
280
     0
281
     1
  0
CLASS
  1
HATCH
  2
AcDbHatch
  3
AutoCAD 2000
 90
    32768
280
     0
281
     1
  0
CLASS
  1
XRECORD
  2
AcDbXrecord
  3
AutoCAD 2000
 90
    32768
280
     0
281
     0
  0
CLASS
  1
LONG_TRANSACTION
  2
AcDbLongTransaction
  3
AutoCAD 2000
 90
    32768
280
     0
281
     0
  0
CLASS
  1
LWPOLYLINE
  2
AcDbPolyline
  3
AutoCAD 2000
 90
    32768
280
     0
281
     1
  0
CLASS
  1
HATCH
  2
AcDbHatch
  3
AutoCAD 2000
 90
    32768
280
     0
281
     1
  0
CLASS
  1
XRECORD
  2
AcDbXrecord
  3
AutoCAD 2000
 90
    32768
280
     0
281
     0
  0
ENDSEC
  0
SECTION
  2
TABLES
  0
TABLE
  2
VPORT
  5
8
330
0
100
AcDbSymbolTable
 70
     2
  0
VPORT
  5
1FF
330
8
100
AcDbSymbolTableRecord
100
AcDbViewportTableRecord
  2
*ACTIVE
 70
     0
 10
0.0
 20
0.0
 11
1.0
 21
1.0
 12
72.25145018770297
 22
49.99740643077231
 13
0.0
 23
0.0
 14
1.0
 24
1.0
 15
0.0
 25
0.0
 16
0.0
 26
0.0
 36
1.0
 17
0.0
 27
0.0
 37
0.0
 40
99.73264448258687
 41
1.458837772397094
 42
50.0
 43
0.0
 44
0.0
 50
0.0
 51
0.0
 71
     0
 72
   100
 73
     1
 74
     1
 75
     0
 76
     0
 77
     0
 78
     0
  0
ENDTAB
  0
TABLE
  2
LTYPE
  5
5
330
0
100
AcDbSymbolTable
 70
     4
  0
LTYPE
  5
13
330
5
100
AcDbSymbolTableRecord
100
AcDbLinetypeTableRecord
  2
BYBLOCK
 70
     0
  3

 72
    65
 73
     0
 40
0.0
  0
LTYPE
  5
14
330
5
100
AcDbSymbolTableRecord
100
AcDbLinetypeTableRecord
  2
BYLAYER
 70
     0
  3

 72
    65
 73
     0
 40
0.0
  0
LTYPE
  5
15
330
5
100
AcDbSymbolTableRecord
100
AcDbLinetypeTableRecord
  2
CONTINUOUS
 70
     0
  3
Solid line
 72
    65
 73
     0
 40
0.0
  0
LTYPE
  5
23
330
5
100
AcDbSymbolTableRecord
100
AcDbLinetypeTableRecord
  2
DASHED
 70
     0
  3
__ __ __ __ __ __ __ __ __ __ __ __ __ __ __
 72
    65
 73
     2
 40
0.75
 49
0.5
 74
     0
 49
-0.25
 74
     0
  0
LTYPE
  5
25
330
5
100
AcDbSymbolTableRecord
100
AcDbLinetypeTableRecord
  2
DOT
 70
     0
  3
...............................................
 72
    65
 73
     2
 40
0.25
 49
0.0
 74
     0
 49
-0.25
 74
     0
  0
LTYPE
  5
28
330
5
100
AcDbSymbolTableRecord
100
AcDbLinetypeTableRecord
  2
CENTER
 70
     0
  3
____ _ ____ _ ____ _ ____ _ ____ _ ____ _ ____ 
 72
    65
 73
     4
 40
2.0
 49
1.25
 74
     0
 49
-0.25
 74
     0
 49
0.25
 74
     0
 49
-0.25
 74
     0
  0
ENDTAB
  0
TABLE
  2
LAYER
  5
2
330
0
100
AcDbSymbolTable
 70
     3
  0
LAYER
  5
10
330
2
100
AcDbSymbolTableRecord
100
AcDbLayerTableRecord
  2
0
 70
     0
 62
     7
  6
CONTINUOUS
  0
LAYER
  5
22
330
2
100
AcDbSymbolTableRecord
100
AcDbLayerTableRecord
  2
CSLAYER1
 70
     0
 62
     7
  6
CONTINUOUS
  0
LAYER
  5
178
330
2
100
AcDbSymbolTableRecord
100
AcDbLayerTableRecord
  2
DEFPOINTS
 70
     0
 62
     7
  6
CONTINUOUS
  0
ENDTAB
  0
TABLE
  2
STYLE
  5
3
330
0
100
AcDbSymbolTable
 70
     3
  0
STYLE
  5
11
330
3
100
AcDbSymbolTableRecord
100
AcDbTextStyleTableRecord
  2
STANDARD
 70
     0
 40
0.0
 41
1.0
 50
0.0
 71
     0
 42
0.2
  3
txt
  4
extfont.shx
  0
STYLE
  5
3A
330
3
100
AcDbSymbolTableRecord
100
AcDbTextStyleTableRecord
  2
FX_FONT
 70
     0
 40
1.0
 41
1.0
 50
0.0
 71
     0
 42
1.0
  3
monotxt
  4
bigfont
  0
STYLE
  5
170
330
3
100
AcDbSymbolTableRecord
100
AcDbTextStyleTableRecord
  2
GOTHIC
 70
     0
 40
0.0
 41
1.0
 50
0.0
 71
     0
 42
0.2
  3
txt.shx
  4
extfont.shx
  0
ENDTAB
  0
TABLE
  2
VIEW
  5
6
330
0
100
AcDbSymbolTable
 70
     0
  0
ENDTAB
  0
TABLE
  2
UCS
  5
7
330
0
100
AcDbSymbolTable
 70
     0
  0
ENDTAB
  0
TABLE
  2
APPID
  5
9
330
0
100
AcDbSymbolTable
 70
     1
  0
APPID
  5
12
330
9
100
AcDbSymbolTableRecord
100
AcDbRegAppTableRecord
  2
ACAD
 70
     0
  0
ENDTAB
  0
TABLE
  2
DIMSTYLE
  5
A
330
0
100
AcDbSymbolTable
 70
     1
  0
DIMSTYLE
105
16D
330
A
100
AcDbSymbolTableRecord
100
AcDbDimStyleTableRecord
  2
STANDARD
 70
     0
  3

  4

  5

  6

  7

 40
1.0
 41
0.18
 42
0.0625
 43
0.38
 44
0.18
 45
0.0
 46
0.0
 47
0.0
 48
0.0
140
0.18
141
0.09
142
0.0
143
25.4
144
1.0
145
0.0
146
1.0
147
0.09
 71
     0
 72
     0
 73
     1
 74
     1
 75
     0
 76
     0
 77
     0
 78
     0
170
     0
171
     2
172
     0
173
     0
174
     0
175
     0
176
     0
177
     0
178
     0
270
     2
271
     4
272
     4
273
     2
274
     2
340
11
275
     0
280
     0
281
     0
282
     0
283
     1
284
     0
285
     0
286
     0
287
     3
288
     0
  0
ENDTAB
  0
TABLE
  2
BLOCK_RECORD
  5
1
330
0
100
AcDbSymbolTable
 70
    16
  0
BLOCK_RECORD
  5
1E
102
{ACAD_XDICTIONARY
360
176
102
}
330
1
100
AcDbSymbolTableRecord
100
AcDbBlockTableRecord
  2
*MODEL_SPACE
  0
BLOCK_RECORD
  5
1A
102
{ACAD_XDICTIONARY
360
174
102
}
330
1
100
AcDbSymbolTableRecord
100
AcDbBlockTableRecord
  2
*PAPER_SPACE
  0
BLOCK_RECORD
  5
3F
330
1
100
AcDbSymbolTableRecord
100
AcDbBlockTableRecord
  2
*D0
  0
BLOCK_RECORD
  5
4A
330
1
100
AcDbSymbolTableRecord
100
AcDbBlockTableRecord
  2
*D1
  0
BLOCK_RECORD
  5
57
330
1
100
AcDbSymbolTableRecord
100
AcDbBlockTableRecord
  2
*D2
  0
BLOCK_RECORD
  5
64
330
1
100
AcDbSymbolTableRecord
100
AcDbBlockTableRecord
  2
*D3
  0
BLOCK_RECORD
  5
70
330
1
100
AcDbSymbolTableRecord
100
AcDbBlockTableRecord
  2
FXDIM0000
  0
BLOCK_RECORD
  5
7A
330
1
100
AcDbSymbolTableRecord
100
AcDbBlockTableRecord
  2
FXDIM0001
  0
BLOCK_RECORD
  5
84
330
1
100
AcDbSymbolTableRecord
100
AcDbBlockTableRecord
  2
*D6
  0
BLOCK_RECORD
  5
8F
330
1
100
AcDbSymbolTableRecord
100
AcDbBlockTableRecord
  2
FXDIM0002
  0
BLOCK_RECORD
  5
97
330
1
100
AcDbSymbolTableRecord
100
AcDbBlockTableRecord
  2
*D8
  0
BLOCK_RECORD
  5
A2
330
1
100
AcDbSymbolTableRecord
100
AcDbBlockTableRecord
  2
*D9
  0
BLOCK_RECORD
  5
AC
330
1
100
AcDbSymbolTableRecord
100
AcDbBlockTableRecord
  2
*D10
  0
BLOCK_RECORD
  5
B7
330
1
100
AcDbSymbolTableRecord
100
AcDbBlockTableRecord
  2
*D11
  0
BLOCK_RECORD
  5
C2
330
1
100
AcDbSymbolTableRecord
100
AcDbBlockTableRecord
  2
*D12
  0
BLOCK_RECORD
  5
CD
330
1
100
AcDbSymbolTableRecord
100
AcDbBlockTableRecord
  2
*D13
  0
BLOCK_RECORD
  5
179
330
1
100
AcDbSymbolTableRecord
100
AcDbBlockTableRecord
  2
*D14
  0
BLOCK_RECORD
  5
188
330
1
100
AcDbSymbolTableRecord
100
AcDbBlockTableRecord
  2
*D15
  0
ENDTAB
  0
ENDSEC
  0
SECTION
  2
BLOCKS
  0
BLOCK
  5
1F
330
1E
100
AcDbEntity
  8
0
100
AcDbBlockBegin
  2
*MODEL_SPACE
 70
     0
 10
0.0
 20
0.0
 30
0.0
  3
*MODEL_SPACE
  1

  0
ENDBLK
  5
20
330
1E
100
AcDbEntity
  8
0
100
AcDbBlockEnd
  0
BLOCK
  5
1B
330
1A
100
AcDbEntity
 67
     1
  8
0
100
AcDbBlockBegin
  2
*PAPER_SPACE
 70
     0
 10
0.0
 20
0.0
 30
0.0
  3
*PAPER_SPACE
  1

  0
ENDBLK
  5
1C
330
1A
100
AcDbEntity
 67
     1
  8
0
100
AcDbBlockEnd
  0
BLOCK
  5
40
330
3F
100
AcDbEntity
  8
0
100
AcDbBlockBegin
  2
*D0
 70
     1
 10
0.0
 20
0.0
 30
0.0
  3
*D0
  1

  0
TEXT
  5
41
330
3F
100
AcDbEntity
  8
CSLAYER1
 62
     4
100
AcDbText
 10
93.328293
 20
132.544724
 30
0.0
 40
3.0
  1
(20)
 50
90.0
 41
1.2
 51
15.0
  7
FX_FONT
 72
     5
 11
93.328293
 21
144.544724
 31
0.0
100
AcDbText
  0
LINE
  5
42
330
3F
100
AcDbEntity
  8
CSLAYER1
  6
CONTINUOUS
 62
     4
100
AcDbLine
 10
141.511849
 20
118.544737
 30
0.0
 11
93.328293
 21
118.544737
 31
0.0
  0
LINE
  5
43
330
3F
100
AcDbEntity
  8
CSLAYER1
  6
CONTINUOUS
 62
     4
100
AcDbLine
 10
141.511849
 20
158.5447369999999
 30
0.0
 11
93.328293
 21
158.5447369999999
 31
0.0
  0
LINE
  5
44
330
3F
100
AcDbEntity
  8
CSLAYER1
  6
CONTINUOUS
 62
     4
100
AcDbLine
 10
94.32829299999999
 20
118.544737
 30
0.0
 11
94.32829299999999
 21
158.5447369999999
 31
0.0
  0
LINE
  5
45
330
3F
100
AcDbEntity
  8
CSLAYER1
  6
CONTINUOUS
 62
     4
100
AcDbLine
 10
94.32829299999999
 20
118.544737
 30
0.0
 11
93.551836
 21
121.4425139999999
 31
0.0
  0
LINE
  5
46
330
3F
100
AcDbEntity
  8
CSLAYER1
  6
CONTINUOUS
 62
     4
100
AcDbLine
 10
94.32829299999999
 20
118.544737
 30
0.0
 11
95.104751
 21
121.4425139999999
 31
0.0
  0
LINE
  5
47
330
3F
100
AcDbEntity
  8
CSLAYER1
  6
CONTINUOUS
 62
     4
100
AcDbLine
 10
94.32829299999999
 20
158.5447369999999
 30
0.0
 11
93.551836
 21
155.646959
 31
0.0
  0
LINE
  5
48
330
3F
100
AcDbEntity
  8
CSLAYER1
  6
CONTINUOUS
 62
     4
100
AcDbLine
 10
94.32829299999999
 20
158.5447369999999
 30
0.0
 11
95.104751
 21
155.646959
 31
0.0
  0
ENDBLK
  5
49
330
3F
100
AcDbEntity
  8
0
100
AcDbBlockEnd
  0
BLOCK
  5
4B
330
4A
100
AcDbEntity
  8
0
100
AcDbBlockBegin
  2
*D1
 70
     1
 10
0.0
 20
0.0
 30
0.0
  3
*D1
  1

  0
TEXT
  5
4C
330
4A
100
AcDbEntity
  8
CSLAYER1
 62
     4
100
AcDbText
 10
99.32829300000001
 20
134.044724
 30
0.0
 40
3.0
  1
(2)
 50
90.0
 41
1.285714285714285
 51
15.0
  7
FX_FONT
 72
     5
 11
99.32829300000001
 21
143.044724
 31
0.0
100
AcDbText
  0
LINE
  5
4D
330
4A
100
AcDbEntity
  8
CSLAYER1
  6
CONTINUOUS
 62
     4
100
AcDbLine
 10
108.105263
 20
136.544737
 30
0.0
 11
99.32829300000001
 21
136.544737
 31
0.0
  0
LINE
  5
4E
330
4A
100
AcDbEntity
  8
CSLAYER1
  6
CONTINUOUS
 62
     4
100
AcDbLine
 10
108.105263
 20
140.544737
 30
0.0
 11
99.32829300000001
 21
140.544737
 31
0.0
  0
LINE
  5
4F
330
4A
100
AcDbEntity
  8
CSLAYER1
  6
CONTINUOUS
 62
     4
100
AcDbLine
 10
100.328293
 20
136.544737
 30
0.0
 11
100.328293
 21
140.544737
 31
0.0
  0
LINE
  5
50
330
4A
100
AcDbEntity
  8
CSLAYER1
  6
CONTINUOUS
 62
     4
100
AcDbLine
 10
100.328293
 20
130.5447369999999
 30
0.0
 11
100.328293
 21
136.544737
 31
0.0
  0
LINE
  5
51
330
4A
100
AcDbEntity
  8
CSLAYER1
  6
CONTINUOUS
 62
     4
100
AcDbLine
 10
100.328293
 20
136.544737
 30
0.0
 11
99.55183599999999
 21
133.646959
 31
0.0
  0
LINE
  5
52
330
4A
100
AcDbEntity
  8
CSLAYER1
  6
CONTINUOUS
 62
     4
100
AcDbLine
 10
100.328293
 20
136.544737
 30
0.0
 11
101.104751
 21
133.646959
 31
0.0
  0
LINE
  5
53
330
4A
100
AcDbEntity
  8
CSLAYER1
  6
CONTINUOUS
 62
     4
100
AcDbLine
 10
100.328293
 20
140.544737
 30
0.0
 11
100.328293
 21
146.5447369999999
 31
0.0
  0
LINE
  5
54
330
4A
100
AcDbEntity
  8
CSLAYER1
  6
CONTINUOUS
 62
     4
100
AcDbLine
 10
100.328293
 20
140.544737
 30
0.0
 11
99.55183599999999
 21
143.4425139999999
 31
0.0
  0
LINE
  5
55
330
4A
100
AcDbEntity
  8
CSLAYER1
  6
CONTINUOUS
 62
     4
100
AcDbLine
 10
100.328293
 20
140.544737
 30
0.0
 11
101.104751
 21
143.4425139999999
 31
0.0
  0
ENDBLK
  5
56
330
4A
100
AcDbEntity
  8
0
100
AcDbBlockEnd
  0
BLOCK
  5
58
330
57
100
AcDbEntity
  8
0
100
AcDbBlockBegin
  2
*D2
 70
     1
 10
0.0
 20
0.0
 30
0.0
  3
*D2
  1

  0
TEXT
  5
59
330
57
100
AcDbEntity
  8
CSLAYER1
 62
     4
100
AcDbText
 10
91.267799
 20
76.59474200000002
 30
0.0
 40
3.0
  1
9   
 50
90.0
 41
1.428571428571428
 51
15.0
  7
FX_FONT
 72
     5
 11
91.267799
 21
88.59474200000002
 31
0.0
100
AcDbText
  0
TEXT
  5
5A
330
57
100
AcDbEntity
  8
CSLAYER1
 62
     4
100
AcDbText
 10
89.767799
 20
88.59474200000002
 30
0.0
 40
1.5
  1
  0
 50
90.0
 41
1.607142857142857
 51
15.0
  7
FX_FONT
 72
     5
 11
89.767799
 21
93.09474200000002
 31
0.0
100
AcDbText
  0
TEXT
  5
5B
330
57
100
AcDbEntity
  8
CSLAYER1
 62
     4
100
AcDbText
 10
91.267799
 20
88.59474200000002
 30
0.0
 40
1.5
  1
-0.15
 50
90.0
 41
1.071428571428567
 51
15.0
  7
FX_FONT
 72
     5
 11
91.267799
 21
96.09474200000001
 31
0.0
100
AcDbText
  0
LINE
  5
5C
330
57
100
AcDbEntity
  8
CSLAYER1
  6
CONTINUOUS
 62
     4
100
AcDbLine
 10
108.105263
 20
69.544737
 30
0.0
 11
91.26779799999999
 21
69.544737
 31
0.0
  0
LINE
  5
5D
330
57
100
AcDbEntity
  8
CSLAYER1
  6
CONTINUOUS
 62
     4
100
AcDbLine
 10
136.1052629999997
 20
87.544737
 30
0.0
 11
91.26779799999999
 21
87.544737
 31
0.0
  0
LINE
  5
5E
330
57
100
AcDbEntity
  8
CSLAYER1
  6
CONTINUOUS
 62
     4
100
AcDbLine
 10
92.267798
 20
69.544737
 30
0.0
 11
92.267798
 21
87.544737
 31
0.0
  0
LINE
  5
5F
330
57
100
AcDbEntity
  8
CSLAYER1
  6
CONTINUOUS
 62
     4
100
AcDbLine
 10
92.267798
 20
69.544737
 30
0.0
 11
91.49134100000001
 21
72.442514
 31
0.0
  0
LINE
  5
60
330
57
100
AcDbEntity
  8
CSLAYER1
  6
CONTINUOUS
 62
     4
100
AcDbLine
 10
92.267798
 20
69.544737
 30
0.0
 11
93.044255
 21
72.442514
 31
0.0
  0
LINE
  5
61
330
57
100
AcDbEntity
  8
CSLAYER1
  6
CONTINUOUS
 62
     4
100
AcDbLine
 10
92.267798
 20
87.544737
 30
0.0
 11
91.49134100000001
 21
84.646959
 31
0.0
  0
LINE
  5
62
330
57
100
AcDbEntity
  8
CSLAYER1
  6
CONTINUOUS
 62
     4
100
AcDbLine
 10
92.267798
 20
87.544737
 30
0.0
 11
93.044255
 21
84.646959
 31
0.0
  0
ENDBLK
  5
63
330
57
100
AcDbEntity
  8
0
100
AcDbBlockEnd
  0
BLOCK
  5
65
330
64
100
AcDbEntity
  8
0
100
AcDbBlockBegin
  2
*D3
 70
     1
 10
0.0
 20
0.0
 30
0.0
  3
*D3
  1

  0
TEXT
  5
66
330
64
100
AcDbEntity
  8
CSLAYER1
 62
     4
100
AcDbText
 10
97.07859800000001
 20
69.41684000000001
 30
0.0
 40
3.0
  1
(4.5)
 50
90.0
 41
1.153846153846154
 51
15.0
  7
FX_FONT
 72
     5
 11
97.07859800000001
 21
84.41684
 31
0.0
100
AcDbText
  0
LINE
  5
67
330
64
100
AcDbEntity
  8
CSLAYER1
  6
CONTINUOUS
 62
     4
100
AcDbLine
 10
131.870984
 20
78.54473699999998
 30
0.0
 11
97.36586899999998
 21
78.54473699999998
 31
0.0
  0
LINE
  5
68
330
64
100
AcDbEntity
  8
CSLAYER1
  6
CONTINUOUS
 62
     4
100
AcDbLine
 10
98.365869
 20
69.544737
 30
0.0
 11
98.365869
 21
78.54473699999998
 31
0.0
  0
LINE
  5
69
330
64
100
AcDbEntity
  8
CSLAYER1
  6
CONTINUOUS
 62
     4
100
AcDbLine
 10
98.365869
 20
61.098676
 30
0.0
 11
98.365869
 21
69.544737
 31
0.0
  0
LINE
  5
6A
330
64
100
AcDbEntity
  8
CSLAYER1
  6
CONTINUOUS
 62
     4
100
AcDbLine
 10
98.365869
 20
69.544737
 30
0.0
 11
97.589412
 21
66.64695899999999
 31
0.0
  0
LINE
  5
6B
330
64
100
AcDbEntity
  8
CSLAYER1
  6
CONTINUOUS
 62
     4
100
AcDbLine
 10
98.365869
 20
69.544737
 30
0.0
 11
99.142326
 21
66.64695899999999
 31
0.0
  0
LINE
  5
6C
330
64
100
AcDbEntity
  8
CSLAYER1
  6
CONTINUOUS
 62
     4
100
AcDbLine
 10
98.365869
 20
78.54473699999998
 30
0.0
 11
98.365869
 21
84.54473699999999
 31
0.0
  0
LINE
  5
6D
330
64
100
AcDbEntity
  8
CSLAYER1
  6
CONTINUOUS
 62
     4
100
AcDbLine
 10
98.365869
 20
78.54473699999998
 30
0.0
 11
97.589412
 21
81.44251399999998
 31
0.0
  0
LINE
  5
6E
330
64
100
AcDbEntity
  8
CSLAYER1
  6
CONTINUOUS
 62
     4
100
AcDbLine
 10
98.365869
 20
78.54473699999998
 30
0.0
 11
99.142326
 21
81.44251399999998
 31
0.0
  0
ENDBLK
  5
6F
330
64
100
AcDbEntity
  8
0
100
AcDbBlockEnd
  0
BLOCK
  5
71
330
70
100
AcDbEntity
  8
0
100
AcDbBlockBegin
  2
FXDIM0000
 70
     0
 10
0.0
 20
0.0
 30
0.0
  3
FXDIM0000
  1

  0
LINE
  5
72
330
70
100
AcDbEntity
  8
CSLAYER1
  6
CONTINUOUS
 62
     4
100
AcDbLine
 10
173.9052629999999
 20
87.544737
 30
0.0
 11
175.905263
 21
91.008838
 31
0.0
  0
LINE
  5
73
330
70
100
AcDbEntity
  8
CSLAYER1
  6
CONTINUOUS
 62
     4
100
AcDbLine
 10
171.905263
 20
91.008838
 30
0.0
 11
183.9052629999999
 21
91.008838
 31
0.0
  0
LINE
  5
74
330
70
100
AcDbEntity
  8
CSLAYER1
  6
CONTINUOUS
 62
     4
100
AcDbLine
 10
171.905263
 20
91.008838
 30
0.0
 11
173.9052629999999
 21
87.544737
 31
0.0
  0
LINE
  5
75
330
70
100
AcDbEntity
  8
CSLAYER1
  6
CONTINUOUS
 62
     4
100
AcDbLine
 10
177.9052629999999
 20
87.544737
 30
0.0
 11
179.905263
 21
91.008838
 31
0.0
  0
LINE
  5
76
330
70
100
AcDbEntity
  8
CSLAYER1
  6
CONTINUOUS
 62
     4
100
AcDbLine
 10
175.905263
 20
91.008838
 30
0.0
 11
177.9052629999999
 21
87.544737
 31
0.0
  0
LINE
  5
77
330
70
100
AcDbEntity
  8
CSLAYER1
  6
CONTINUOUS
 62
     4
100
AcDbLine
 10
181.9052629999999
 20
87.544737
 30
0.0
 11
183.9052629999999
 21
91.008838
 31
0.0
  0
LINE
  5
78
330
70
100
AcDbEntity
  8
CSLAYER1
  6
CONTINUOUS
 62
     4
100
AcDbLine
 10
179.905263
 20
91.008838
 30
0.0
 11
181.9052629999999
 21
87.544737
 31
0.0
  0
ENDBLK
  5
79
330
70
100
AcDbEntity
  8
0
100
AcDbBlockEnd
  0
BLOCK
  5
7B
330
7A
100
AcDbEntity
  8
0
100
AcDbBlockBegin
  2
FXDIM0001
 70
     0
 10
0.0
 20
0.0
 30
0.0
  3
FXDIM0001
  1

  0
LINE
  5
7C
330
7A
100
AcDbEntity
  8
CSLAYER1
  6
CONTINUOUS
 62
     4
100
AcDbLine
 10
173.9052629999999
 20
69.544737
 30
0.0
 11
171.905263
 21
66.080635
 31
0.0
  0
LINE
  5
7D
330
7A
100
AcDbEntity
  8
CSLAYER1
  6
CONTINUOUS
 62
     4
100
AcDbLine
 10
171.905263
 20
66.080635
 30
0.0
 11
183.9052629999999
 21
66.080635
 31
0.0
  0
LINE
  5
7E
330
7A
100
AcDbEntity
  8
CSLAYER1
  6
CONTINUOUS
 62
     4
100
AcDbLine
 10
175.905263
 20
66.080635
 30
0.0
 11
173.9052629999999
 21
69.544737
 31
0.0
  0
LINE
  5
7F
330
7A
100
AcDbEntity
  8
CSLAYER1
  6
CONTINUOUS
 62
     4
100
AcDbLine
 10
177.9052629999999
 20
69.544737
 30
0.0
 11
175.905263
 21
66.080635
 31
0.0
  0
LINE
  5
80
330
7A
100
AcDbEntity
  8
CSLAYER1
  6
CONTINUOUS
 62
     4
100
AcDbLine
 10
179.905263
 20
66.080635
 30
0.0
 11
177.9052629999999
 21
69.544737
 31
0.0
  0
LINE
  5
81
330
7A
100
AcDbEntity
  8
CSLAYER1
  6
CONTINUOUS
 62
     4
100
AcDbLine
 10
181.9052629999999
 20
69.544737
 30
0.0
 11
179.905263
 21
66.080635
 31
0.0
  0
LINE
  5
82
330
7A
100
AcDbEntity
  8
CSLAYER1
  6
CONTINUOUS
 62
     4
100
AcDbLine
 10
183.9052629999999
 20
66.080635
 30
0.0
 11
181.9052629999999
 21
69.544737
 31
0.0
  0
ENDBLK
  5
83
330
7A
100
AcDbEntity
  8
0
100
AcDbBlockEnd
  0
BLOCK
  5
85
330
84
100
AcDbEntity
  8
0
100
AcDbBlockBegin
  2
*D6
 70
     1
 10
0.0
 20
0.0
 30
0.0
  3
*D6
  1

  0
TEXT
  5
86
330
84
100
AcDbEntity
  8
CSLAYER1
 62
     4
100
AcDbText
 10
133.105255
 20
181.2455899999999
 30
0.0
 40
3.0
  1
27
 41
1.199999999999982
 51
15.0
  7
FX_FONT
 72
     5
 11
139.1052549999999
 21
181.2455899999999
 31
0.0
100
AcDbText
  0
LINE
  5
87
330
84
100
AcDbEntity
  8
CSLAYER1
  6
CONTINUOUS
 62
     4
100
AcDbLine
 10
109.1052629999999
 20
180.2455919999999
 30
0.0
 11
163.1052629999999
 21
180.2455919999999
 31
0.0
  0
LINE
  5
88
330
84
100
AcDbEntity
  8
CSLAYER1
  6
CONTINUOUS
 62
     4
100
AcDbLine
 10
109.1052629999999
 20
180.2455919999999
 30
0.0
 11
112.003041
 21
181.022049
 31
0.0
  0
LINE
  5
89
330
84
100
AcDbEntity
  8
CSLAYER1
  6
CONTINUOUS
 62
     4
100
AcDbLine
 10
109.1052629999999
 20
180.2455919999999
 30
0.0
 11
112.003041
 21
179.469135
 31
0.0
  0
LINE
  5
8A
330
84
100
AcDbEntity
  8
CSLAYER1
  6
CONTINUOUS
 62
     4
100
AcDbLine
 10
163.1052629999999
 20
180.2455919999999
 30
0.0
 11
160.207486
 21
181.022049
 31
0.0
  0
LINE
  5
8B
330
84
100
AcDbEntity
  8
CSLAYER1
  6
CONTINUOUS
 62
     4
100
AcDbLine
 10
163.1052629999999
 20
180.2455919999999
 30
0.0
 11
160.207486
 21
179.469135
 31
0.0
  0
LINE
  5
8C
330
84
100
AcDbEntity
  8
CSLAYER1
  6
CONTINUOUS
 62
     4
100
AcDbLine
 10
109.1052629999999
 20
141.544737
 30
0.0
 11
109.1052629999999
 21
181.2455919999999
 31
0.0
  0
LINE
  5
8D
330
84
100
AcDbEntity
  8
CSLAYER1
  6
CONTINUOUS
 62
     4
100
AcDbLine
 10
163.1052629999999
 20
167.144737
 30
0.0
 11
163.1052629999999
 21
181.2455919999999
 31
0.0
  0
ENDBLK
  5
8E
330
84
100
AcDbEntity
  8
0
100
AcDbBlockEnd
  0
BLOCK
  5
90
330
8F
100
AcDbEntity
  8
0
100
AcDbBlockBegin
  2
FXDIM0002
 70
     0
 10
0.0
 20
0.0
 30
0.0
  3
FXDIM0002
  1

  0
LINE
  5
91
330
8F
100
AcDbEntity
  8
CSLAYER1
  6
CONTINUOUS
 62
     4
100
AcDbLine
 10
162.044105
 20
134.5844409999999
 30
0.0
 11
154.412159
 21
106.101632
 31
0.0
  0
LINE
  5
92
330
8F
100
AcDbEntity
  8
CSLAYER1
  6
CONTINUOUS
 62
     4
100
AcDbLine
 10
162.044105
 20
134.5844409999999
 30
0.0
 11
162.044105
 21
131.5844409999999
 31
0.0
  0
LINE
  5
93
330
8F
100
AcDbEntity
  8
CSLAYER1
  6
CONTINUOUS
 62
     4
100
AcDbLine
 10
162.044105
 20
134.5844409999999
 30
0.0
 11
160.544105
 21
131.9863649999997
 31
0.0
  0
LINE
  5
94
330
8F
100
AcDbEntity
  8
CSLAYER1
  6
CONTINUOUS
 62
     4
100
AcDbLine
 10
154.412159
 20
106.101632
 30
0.0
 11
140.412159
 21
106.101632
 31
0.0
  0
TEXT
  5
95
330
8F
100
AcDbEntity
  8
CSLAYER1
 62
     4
100
AcDbText
 10
141.412155
 20
107.101631
 30
0.0
 40
3.0
  1
%%c4.1
 41
1.142857142857142
 51
15.0
  7
FX_FONT
 72
     5
 11
153.412155
 21
107.101631
 31
0.0
100
AcDbText
  0
ENDBLK
  5
96
330
8F
100
AcDbEntity
  8
0
100
AcDbBlockEnd
  0
BLOCK
  5
98
330
97
100
AcDbEntity
  8
0
100
AcDbBlockBegin
  2
*D8
 70
     1
 10
0.0
 20
0.0
 30
0.0
  3
*D8
  1

  0
TEXT
  5
99
330
97
100
AcDbEntity
  8
CSLAYER1
 62
     4
100
AcDbText
 10
61.41760099999999
 20
175.4326589999999
 30
0.0
 40
3.0
  1
35%%d
 50
342.5000020357895
 41
1.285714337707243
 51
15.0
  7
FX_FONT
 72
     5
 11
70.00105400000001
 21
172.726307
 31
0.0
100
AcDbText
  0
ARC
  5
9A
330
97
100
AcDbEntity
  8
CSLAYER1
  6
CONTINUOUS
 62
     4
100
AcDbCircle
 10
54.50526299999999
 20
138.544737
 30
0.0
 40
36.25922399999997
100
AcDbArc
 50
55.0
 51
90.0
  0
LINE
  5
9B
330
97
100
AcDbEntity
  8
CSLAYER1
  6
CONTINUOUS
 62
     4
100
AcDbLine
 10
75.3027
 20
168.246555
 30
0.0
 11
72.48362199999998
 21
169.272615
 31
0.0
  0
LINE
  5
9C
330
97
100
AcDbEntity
  8
CSLAYER1
  6
CONTINUOUS
 62
     4
100
AcDbLine
 10
75.3027
 20
168.246555
 30
0.0
 11
73.374337
 21
170.5446879999998
 31
0.0
  0
LINE
  5
9D
330
97
100
AcDbEntity
  8
CSLAYER1
  6
CONTINUOUS
 62
     4
100
AcDbLine
 10
54.50526299999999
 20
174.803961
 30
0.0
 11
57.403041
 21
175.5804179999999
 31
0.0
  0
LINE
  5
9E
330
97
100
AcDbEntity
  8
CSLAYER1
  6
CONTINUOUS
 62
     4
100
AcDbLine
 10
54.50526299999999
 20
174.803961
 30
0.0
 11
57.403041
 21
174.027504
 31
0.0
  0
LINE
  5
9F
330
97
100
AcDbEntity
  8
CSLAYER1
  6
CONTINUOUS
 62
     4
100
AcDbLine
 10
57.07883999999999
 20
142.220185
 30
0.0
 11
75.87627600000002
 21
169.065707
 31
0.0
  0
LINE
  5
A0
330
97
100
AcDbEntity
  8
CSLAYER1
  6
CONTINUOUS
 62
     4
100
AcDbLine
 10
54.50526299999999
 20
159.544737
 30
0.0
 11
54.50526299999999
 21
175.803961
 31
0.0
  0
ENDBLK
  5
A1
330
97
100
AcDbEntity
  8
0
100
AcDbBlockEnd
  0
BLOCK
  5
A3
330
A2
100
AcDbEntity
  8
0
100
AcDbBlockBegin
  2
*D9
 70
     1
 10
0.0
 20
0.0
 30
0.0
  3
*D9
  1

  0
TEXT
  5
A4
330
A2
100
AcDbEntity
  8
CSLAYER1
 62
     4
100
AcDbText
 10
56.868677
 20
168.5637
 30
0.0
 40
3.0
  1
25%%d
 50
347.4999969621929
 41
1.28571429145036
 51
15.0
  7
FX_FONT
 72
     5
 11
65.655341
 21
166.6157429999999
 31
0.0
100
AcDbText
  0
ARC
  5
A5
330
A2
100
AcDbEntity
  8
CSLAYER1
  6
CONTINUOUS
 62
     4
100
AcDbCircle
 10
54.50526299999999
 20
137.112019
 30
0.0
 40
30.21769799999999
100
AcDbArc
 50
65.0
 51
90.0
  0
LINE
  5
A6
330
A2
100
AcDbEntity
  8
CSLAYER1
  6
CONTINUOUS
 62
     4
100
AcDbLine
 10
67.275814
 20
164.498554
 30
0.0
 11
64.321391
 21
165.0194989999999
 31
0.0
  0
LINE
  5
A7
330
A2
100
AcDbEntity
  8
CSLAYER1
  6
CONTINUOUS
 62
     4
100
AcDbLine
 10
67.275814
 20
164.498554
 30
0.0
 11
64.977681
 21
166.426917
 31
0.0
  0
LINE
  5
A8
330
A2
100
AcDbEntity
  8
CSLAYER1
  6
CONTINUOUS
 62
     4
100
AcDbLine
 10
54.50526299999999
 20
167.3297169999998
 30
0.0
 11
57.403041
 21
168.106175
 31
0.0
  0
LINE
  5
A9
330
A2
100
AcDbEntity
  8
CSLAYER1
  6
CONTINUOUS
 62
     4
100
AcDbLine
 10
54.50526299999999
 20
167.3297169999998
 30
0.0
 11
57.403041
 21
166.55326
 31
0.0
  0
LINE
  5
AA
330
A2
100
AcDbEntity
  8
CSLAYER1
  6
CONTINUOUS
 62
     4
100
AcDbLine
 10
63.927881
 20
157.3188889999999
 30
0.0
 11
67.69843299999999
 21
165.404862
 31
0.0
  0
ENDBLK
  5
AB
330
A2
100
AcDbEntity
  8
0
100
AcDbBlockEnd
  0
BLOCK
  5
AD
330
AC
100
AcDbEntity
  8
0
100
AcDbBlockBegin
  2
*D10
 70
     1
 10
0.0
 20
0.0
 30
0.0
  3
*D10
  1

  0
TEXT
  5
AE
330
AC
100
AcDbEntity
  8
CSLAYER1
 62
     4
100
AcDbText
 10
147.1052699999999
 20
97.738846
 30
0.0
 40
3.0
  1
13
 41
1.200000000000017
 51
15.0
  7
FX_FONT
 72
     5
 11
153.10527
 21
97.738846
 31
0.0
100
AcDbText
  0
LINE
  5
AF
330
AC
100
AcDbEntity
  8
CSLAYER1
  6
CONTINUOUS
 62
     4
100
AcDbLine
 10
137.1052629999997
 20
96.738843
 30
0.0
 11
163.1052629999999
 21
96.738843
 31
0.0
  0
LINE
  5
B0
330
AC
100
AcDbEntity
  8
CSLAYER1
  6
CONTINUOUS
 62
     4
100
AcDbLine
 10
137.1052629999997
 20
96.738843
 30
0.0
 11
140.003041
 21
97.51530100000001
 31
0.0
  0
LINE
  5
B1
330
AC
100
AcDbEntity
  8
CSLAYER1
  6
CONTINUOUS
 62
     4
100
AcDbLine
 10
137.1052629999997
 20
96.738843
 30
0.0
 11
140.003041
 21
95.96238599999999
 31
0.0
  0
LINE
  5
B2
330
AC
100
AcDbEntity
  8
CSLAYER1
  6
CONTINUOUS
 62
     4
100
AcDbLine
 10
163.1052629999999
 20
96.738843
 30
0.0
 11
160.207486
 21
97.51530100000001
 31
0.0
  0
LINE
  5
B3
330
AC
100
AcDbEntity
  8
CSLAYER1
  6
CONTINUOUS
 62
     4
100
AcDbLine
 10
163.1052629999999
 20
96.738843
 30
0.0
 11
160.207486
 21
95.96238599999999
 31
0.0
  0
LINE
  5
B4
330
AC
100
AcDbEntity
  8
CSLAYER1
  6
CONTINUOUS
 62
     4
100
AcDbLine
 10
137.1052629999997
 20
88.54473699999998
 30
0.0
 11
137.1052629999997
 21
97.738843
 31
0.0
  0
LINE
  5
B5
330
AC
100
AcDbEntity
  8
CSLAYER1
  6
CONTINUOUS
 62
     4
100
AcDbLine
 10
163.1052629999999
 20
92.37348799999999
 30
0.0
 11
163.1052629999999
 21
97.738843
 31
0.0
  0
ENDBLK
  5
B6
330
AC
100
AcDbEntity
  8
0
100
AcDbBlockEnd
  0
BLOCK
  5
B8
330
B7
100
AcDbEntity
  8
0
100
AcDbBlockBegin
  2
*D11
 70
     1
 10
0.0
 20
0.0
 30
0.0
  3
*D11
  1

  0
TEXT
  5
B9
330
B7
100
AcDbEntity
  8
CSLAYER1
 62
     4
100
AcDbText
 10
53.511368
 20
29.152708
 30
0.0
 40
3.0
  1
7
 50
90.0
 41
1.500000000000001
 51
15.0
  7
FX_FONT
 72
     5
 11
53.511368
 21
32.152708
 31
0.0
100
AcDbText
  0
LINE
  5
BA
330
B7
100
AcDbEntity
  8
CSLAYER1
  6
CONTINUOUS
 62
     4
100
AcDbLine
 10
54.511365
 20
23.65270799999998
 30
0.0
 11
54.511365
 21
37.652708
 31
0.0
  0
LINE
  5
BB
330
B7
100
AcDbEntity
  8
CSLAYER1
  6
CONTINUOUS
 62
     4
100
AcDbLine
 10
54.511365
 20
23.65270799999998
 30
0.0
 11
53.73490799999999
 21
26.550486
 31
0.0
  0
LINE
  5
BC
330
B7
100
AcDbEntity
  8
CSLAYER1
  6
CONTINUOUS
 62
     4
100
AcDbLine
 10
54.511365
 20
23.65270799999998
 30
0.0
 11
55.28782299999999
 21
26.550486
 31
0.0
  0
LINE
  5
BD
330
B7
100
AcDbEntity
  8
CSLAYER1
  6
CONTINUOUS
 62
     4
100
AcDbLine
 10
54.511365
 20
37.652708
 30
0.0
 11
53.73490799999999
 21
34.754931
 31
0.0
  0
LINE
  5
BE
330
B7
100
AcDbEntity
  8
CSLAYER1
  6
CONTINUOUS
 62
     4
100
AcDbLine
 10
54.511365
 20
37.652708
 30
0.0
 11
55.28782299999999
 21
34.754931
 31
0.0
  0
LINE
  5
BF
330
B7
100
AcDbEntity
  8
CSLAYER1
  6
CONTINUOUS
 62
     4
100
AcDbLine
 10
64.537598
 20
23.65270799999998
 30
0.0
 11
53.511365
 21
23.65270799999998
 31
0.0
  0
LINE
  5
C0
330
B7
100
AcDbEntity
  8
CSLAYER1
  6
CONTINUOUS
 62
     4
100
AcDbLine
 10
64.537598
 20
37.652708
 30
0.0
 11
53.511365
 21
37.652708
 31
0.0
  0
ENDBLK
  5
C1
330
B7
100
AcDbEntity
  8
0
100
AcDbBlockEnd
  0
BLOCK
  5
C3
330
C2
100
AcDbEntity
  8
0
100
AcDbBlockBegin
  2
*D12
 70
     1
 10
0.0
 20
0.0
 30
0.0
  3
*D12
  1

  0
TEXT
  5
C4
330
C2
100
AcDbEntity
  8
CSLAYER1
 62
     4
100
AcDbText
 10
110.6052629999999
 20
62.937435
 30
0.0
 40
3.0
  1
切刃部有効12
 41
0.913043478260869
 51
15.0
  7
FX_FONT
 72
     5
 11
131.6052629999999
 21
62.937435
 31
0.0
100
AcDbText
  0
LINE
  5
C5
330
C2
100
AcDbEntity
  8
CSLAYER1
  6
CONTINUOUS
 62
     4
100
AcDbLine
 10
109.1052629999999
 20
61.937436
 30
0.0
 11
133.1052629999997
 21
61.937436
 31
0.0
  0
LINE
  5
C6
330
C2
100
AcDbEntity
  8
CSLAYER1
  6
CONTINUOUS
 62
     4
100
AcDbLine
 10
109.1052629999999
 20
61.937436
 30
0.0
 11
112.003041
 21
62.713893
 31
0.0
  0
LINE
  5
C7
330
C2
100
AcDbEntity
  8
CSLAYER1
  6
CONTINUOUS
 62
     4
100
AcDbLine
 10
109.1052629999999
 20
61.937436
 30
0.0
 11
112.003041
 21
61.160979
 31
0.0
  0
LINE
  5
C8
330
C2
100
AcDbEntity
  8
CSLAYER1
  6
CONTINUOUS
 62
     4
100
AcDbLine
 10
133.1052629999997
 20
61.937436
 30
0.0
 11
130.207486
 21
62.713893
 31
0.0
  0
LINE
  5
C9
330
C2
100
AcDbEntity
  8
CSLAYER1
  6
CONTINUOUS
 62
     4
100
AcDbLine
 10
133.1052629999997
 20
61.937436
 30
0.0
 11
130.207486
 21
61.160979
 31
0.0
  0
LINE
  5
CA
330
C2
100
AcDbEntity
  8
CSLAYER1
  6
CONTINUOUS
 62
     4
100
AcDbLine
 10
109.1052629999999
 20
68.54473699999998
 30
0.0
 11
109.1052629999999
 21
60.93743599999999
 31
0.0
  0
LINE
  5
CB
330
C2
100
AcDbEntity
  8
CSLAYER1
  6
CONTINUOUS
 62
     4
100
AcDbLine
 10
133.1052629999997
 20
68.54473699999998
 30
0.0
 11
133.1052629999997
 21
60.93743599999999
 31
0.0
  0
ENDBLK
  5
CC
330
C2
100
AcDbEntity
  8
0
100
AcDbBlockEnd
  0
BLOCK
  5
CE
330
CD
100
AcDbEntity
  8
0
100
AcDbBlockBegin
  2
*D13
 70
     1
 10
0.0
 20
0.0
 30
0.0
  3
*D13
  1

  0
TEXT
  5
CF
330
CD
100
AcDbEntity
  8
CSLAYER1
 62
     4
100
AcDbText
 10
126.176775
 20
125.012578
 30
0.0
 40
3.0
  1
R20
 50
65.56342351163539
 41
1.124999887645609
 51
15.0
  7
FX_FONT
 72
     5
 11
129.899946
 21
133.2063549999999
 31
0.0
100
AcDbText
  0
LINE
  5
D0
330
CD
100
AcDbEntity
  8
CSLAYER1
  6
CONTINUOUS
 62
     4
100
AcDbLine
 10
125.9644219999999
 20
122.1279459999999
 30
0.0
 11
136.684
 21
145.719083
 31
0.0
  0
LINE
  5
D1
330
CD
100
AcDbEntity
  8
CSLAYER1
  6
CONTINUOUS
 62
     4
100
AcDbLine
 10
125.9644219999999
 20
122.1279459999999
 30
0.0
 11
126.4562889999997
 21
125.087349
 31
0.0
  0
LINE
  5
D2
330
CD
100
AcDbEntity
  8
CSLAYER1
  6
CONTINUOUS
 62
     4
100
AcDbLine
 10
125.9644219999999
 20
122.1279459999999
 30
0.0
 11
127.870093
 21
124.444931
 31
0.0
  0
ENDBLK
  5
D3
330
CD
100
AcDbEntity
  8
0
100
AcDbBlockEnd
  0
BLOCK
  5
186
330
179
100
AcDbEntity
  8
0
100
AcDbBlockBegin
  2
*D14
 70
     1
 10
0.0
 20
0.0
 30
0.0
  3
*D14
  1

  0
LINE
  5
17A
330
179
100
AcDbEntity
  8
CSLAYER1
 62
     0
100
AcDbLine
 10
56.54111152738551
 20
141.4522300026885
 30
0.0
 11
75.40594356775878
 21
168.3940021514835
 31
0.0
  0
LINE
  5
17B
330
179
100
AcDbEntity
  8
CSLAYER1
 62
     0
100
AcDbLine
 10
54.50526299999999
 20
158.607237
 30
0.0
 11
54.50526300000003
 21
174.9839614467285
 31
0.0
  0
ARC
  5
17C
330
179
100
AcDbEntity
  8
CSLAYER1
 62
     0
100
AcDbCircle
 10
54.50526299999999
 20
138.544737
 30
0.0
 40
36.25922444672872
100
AcDbArc
 50
55.28443096761113
 51
71.87261302003658
  0
ARC
  5
17D
330
179
100
AcDbEntity
  8
CSLAYER1
 62
     0
100
AcDbCircle
 10
54.50526299999999
 20
138.544737
 30
0.0
 40
36.25922444672872
100
AcDbArc
 50
73.12522812508769
 51
89.71556890530193
  0
SOLID
  5
17E
330
179
100
AcDbEntity
  8
CSLAYER1
 62
     0
100
AcDbTrace
 10
75.1721428741892
 20
168.3740494377538
 30
0.0
 11
75.13785038827683
 21
168.324815045202
 31
0.0
 12
75.30269980888855
 22
168.2465547837406
 32
0.0
 13
75.30269980888855
 23
168.2465547837406
 33
0.0
  0
SOLID
  5
17F
330
179
100
AcDbEntity
  8
CSLAYER1
 62
     0
100
AcDbTrace
 10
54.68518798170326
 20
174.7735147562831
 30
0.0
 11
54.68533690932328
 21
174.833514571454
 31
0.0
 12
54.50526300000002
 22
174.8039614467285
 32
0.0
 13
54.50526300000002
 23
174.8039614467285
 33
0.0
  0
MTEXT
  5
180
330
179
100
AcDbEntity
  8
CSLAYER1
 62
     0
100
AcDbMText
 10
65.4086221150103
 20
173.1257739637374
 30
0.0
 40
0.18
 41
0.0
 71
     5
 72
     1
  1
\A1;35°
1001
ACAD
1000
MTEXTBEGIN
1070
    73
1070
     1
1070
    44
1040
1.0
1070
    74
1070
     0
1000
MTEXTEND
1000
MTEXTBEGIN
1070
    73
1070
     1
1070
    44
1040
1.0
1070
    74
1070
     0
1000
MTEXTEND
  0
POINT
  5
181
330
179
100
AcDbEntity
  8
DEFPOINTS
 62
     0
100
AcDbPoint
 10
68.86680818485392
 20
171.8385408887365
 30
0.0
  0
POINT
  5
182
330
179
100
AcDbEntity
  8
DEFPOINTS
 62
     0
100
AcDbPoint
 10
54.50526299999999
 20
138.544737
 30
0.0
  0
POINT
  5
183
330
179
100
AcDbEntity
  8
DEFPOINTS
 62
     0
100
AcDbPoint
 10
54.50526299999999
 20
158.5447369999999
 30
0.0
  0
POINT
  5
184
330
179
100
AcDbEntity
  8
DEFPOINTS
 62
     0
100
AcDbPoint
 10
54.50526299999999
 20
138.544737
 30
0.0
  0
POINT
  5
185
330
179
100
AcDbEntity
  8
DEFPOINTS
 62
     0
100
AcDbPoint
 10
56.505263
 20
141.401033
 30
0.0
  0
ENDBLK
  5
187
330
179
100
AcDbEntity
  8
0
100
AcDbBlockEnd
  0
BLOCK
  5
194
330
188
100
AcDbEntity
  8
0
100
AcDbBlockBegin
  2
*D15
 70
     1
 10
0.0
 20
0.0
 30
0.0
  3
*D15
  1

  0
LINE
  5
189
330
188
100
AcDbEntity
  8
CSLAYER1
 62
     0
100
AcDbLine
 10
63.5316766419999
 20
156.4692252363908
 30
0.0
 11
67.35188553426027
 21
164.6616894015614
 31
0.0
  0
ARC
  5
18A
330
188
100
AcDbEntity
  8
CSLAYER1
 62
     0
100
AcDbCircle
 10
54.50526299999999
 20
137.1120192857143
 30
0.0
 40
30.2176978409511
100
AcDbArc
 50
65.3412978718507
 51
76.76480622946773
  0
ARC
  5
18B
330
188
100
AcDbEntity
  8
CSLAYER1
 62
     0
100
AcDbCircle
 10
54.50526299999999
 20
137.1120192857143
 30
0.0
 40
30.2176978409511
100
AcDbArc
 50
78.23310750983528
 51
89.65870147969372
  0
SOLID
  5
18C
330
188
100
AcDbEntity
  8
CSLAYER1
 62
     0
100
AcDbTrace
 10
67.12505051018894
 20
164.6013659464389
 30
0.0
 11
67.09985548645986
 21
164.5469121974468
 31
0.0
 12
67.27581424530064
 22
164.4985540007558
 32
0.0
 13
67.27581424530064
 23
164.4985540007558
 33
0.0
  0
SOLID
  5
18D
330
188
100
AcDbEntity
  8
CSLAYER1
 62
     0
100
AcDbTrace
 10
54.68517285001562
 20
167.2991811500581
 30
0.0
 11
54.68535155323875
 21
167.3591808839338
 31
0.0
 12
54.50526299999999
 22
167.3297171266654
 32
0.0
 13
54.50526299999999
 23
167.3297171266654
 33
0.0
  0
MTEXT
  5
18E
330
188
100
AcDbEntity
  8
CSLAYER1
 62
     0
100
AcDbMText
 10
61.04557002173756
 20
166.6134369951809
 30
0.0
 40
0.18
 41
0.0
 71
     5
 72
     1
  1
\A1;25°
1001
ACAD
1000
MTEXTBEGIN
1070
    73
1070
     1
1070
    44
1040
1.0
1070
    74
1070
     0
1000
MTEXTEND
1000
MTEXTBEGIN
1070
    73
1070
     1
1070
    44
1040
1.0
1070
    74
1070
     0
1000
MTEXTEND
  0
POINT
  5
18F
330
188
100
AcDbEntity
  8
DEFPOINTS
 62
     0
100
AcDbPoint
 10
63.17179664428974
 20
166.0602568382737
 30
0.0
  0
POINT
  5
190
330
188
100
AcDbEntity
  8
DEFPOINTS
 62
     0
100
AcDbPoint
 10
56.50526300000001
 20
141.401033
 30
0.0
  0
POINT
  5
191
330
188
100
AcDbEntity
  8
DEFPOINTS
 62
     0
100
AcDbPoint
 10
54.50526299999999
 20
175.803961
 30
0.0
  0
POINT
  5
192
330
188
100
AcDbEntity
  8
DEFPOINTS
 62
     0
100
AcDbPoint
 10
54.50526299999999
 20
159.544737
 30
0.0
  0
POINT
  5
193
330
188
100
AcDbEntity
  8
DEFPOINTS
 62
     0
100
AcDbPoint
 10
63.505263
 20
156.412581
 30
0.0
  0
ENDBLK
  5
195
330
188
100
AcDbEntity
  8
0
100
AcDbBlockEnd
  0
ENDSEC
  0
SECTION
  2
ENTITIES
  0
POINT
  5
D4
330
1E
100
AcDbEntity
  8
CSLAYER1
 62
     3
100
AcDbPoint
 10
135.4999999999999
 20
26.75
 30
0.0
  0
POINT
  5
D5
330
1E
100
AcDbEntity
  8
CSLAYER1
 62
     3
100
AcDbPoint
 10
125.2499999999999
 20
26.75
 30
0.0
  0
POINT
  5
D6
330
1E
100
AcDbEntity
  8
CSLAYER1
 62
     3
100
AcDbPoint
 10
125.2499999999999
 20
21.75
 30
0.0
  0
POINT
  5
D7
330
1E
100
AcDbEntity
  8
CSLAYER1
 62
     3
100
AcDbPoint
 10
135.4999999999999
 20
21.75
 30
0.0
  0
TEXT
  5
D8
330
1E
100
AcDbEntity
  8
CSLAYER1
 62
     3
100
AcDbText
 10
119.0499999999999
 20
25.5
 30
0.0
 40
2.5
  1
刃開キハ
 41
1.110447761194031
  7
FX_FONT
 72
     5
 11
131.45
 21
25.5
 31
0.0
100
AcDbText
  0
TEXT
  5
D9
330
1E
100
AcDbEntity
  8
CSLAYER1
 62
     3
100
AcDbText
 10
119.0
 20
20.5
 30
0.0
 40
2.5
  1
切刃部有効
 41
0.872093023255814
  7
FX_FONT
 72
     5
 11
131.4999999999999
 21
20.5
 31
0.0
100
AcDbText
  0
TEXT
  5
DA
330
1E
100
AcDbEntity
  8
CSLAYER1
 62
     3
100
AcDbText
 10
134.25
 20
25.5
 30
0.0
 40
2.5
  1
7
 41
1.499999999999982
  7
FX_FONT
 72
     5
 11
136.7499999999999
 21
25.5
 31
0.0
100
AcDbText
  0
TEXT
  5
DB
330
1E
100
AcDbEntity
  8
CSLAYER1
 62
     3
100
AcDbText
 10
133.0
 20
20.5
 30
0.0
 40
2.5
  1
12
 41
1.199999999999999
  7
FX_FONT
 72
     5
 11
138.0
 21
20.5
 31
0.0
100
AcDbText
  0
TEXT
  5
DC
330
1E
100
AcDbEntity
  8
CSLAYER1
 62
     3
100
AcDbText
 10
120.75
 20
8.625
 30
0.0
 40
1.75
  1
NE10AJ
 41
1.159663865546218
  7
FX_FONT
 72
     5
 11
132.25
 21
8.625
 31
0.0
100
AcDbText
  0
INSERT
  5
E1
330
1E
100
AcDbEntity
  8
CSLAYER1
100
AcDbBlockReference
  2
FXDIM0000
 10
0.0
 20
0.0
 30
0.0
 41
0.5
 42
0.5
 43
0.5
  0
INSERT
  5
E2
330
1E
100
AcDbEntity
  8
CSLAYER1
100
AcDbBlockReference
  2
FXDIM0001
 10
0.0
 20
0.0
 30
0.0
 41
0.5
 42
0.5
 43
0.5
  0
POINT
  5
E3
330
1E
100
AcDbEntity
  8
CSLAYER1
 62
     3
100
AcDbPoint
 10
126.5
 20
9.5
 30
0.0
  0
LINE
  5
E4
330
1E
100
AcDbEntity
  8
CSLAYER1
  6
CONTINUOUS
 62
     3
100
AcDbLine
 10
119.0
 20
20.0
 30
0.0
 11
139.5
 21
20.0
 31
0.0
  0
LINE
  5
E5
330
1E
100
AcDbEntity
  8
CSLAYER1
  6
CONTINUOUS
 62
     3
100
AcDbLine
 10
139.5
 20
25.0
 30
0.0
 11
119.0
 21
25.0
 31
0.0
  0
LINE
  5
E6
330
1E
100
AcDbEntity
  8
CSLAYER1
  6
CONTINUOUS
 62
     3
100
AcDbLine
 10
128.5526315
 20
35.7723685
 30
0.0
 11
128.5526315
 21
42.7723685
 31
0.0
  0
ARC
  5
E7
330
1E
100
AcDbEntity
  8
CSLAYER1
  6
CONTINUOUS
 62
     3
100
AcDbCircle
 10
122.3076335
 20
23.7723685
 30
0.0
 40
20.0
100
AcDbArc
 50
71.80512799999998
 51
90.0
  0
LINE
  5
E8
330
1E
100
AcDbEntity
  8
CSLAYER1
  6
CONTINUOUS
 62
     3
100
AcDbLine
 10
122.3076335
 20
43.7723685
 30
0.0
 11
68.55263149999989
 21
43.7723685
 31
0.0
  0
LINE
  5
E9
330
1E
100
AcDbEntity
  8
CSLAYER1
  6
CONTINUOUS
 62
     3
100
AcDbLine
 10
68.55263149999989
 20
43.7723685
 30
0.0
 11
68.55263149999989
 21
40.7723685
 31
0.0
  0
LINE
  5
EA
330
1E
100
AcDbEntity
  8
CSLAYER1
  6
CONTINUOUS
 62
     3
100
AcDbLine
 10
67.05263149999989
 20
39.27236849999999
 30
0.0
 11
66.43549200000001
 21
39.27236849999999
 31
0.0
  0
ARC
  5
EB
330
1E
100
AcDbEntity
  8
CSLAYER1
  6
CONTINUOUS
 62
     3
100
AcDbCircle
 10
66.43549200000001
 20
24.27236849999999
 30
0.0
 40
15.0
100
AcDbArc
 50
90.0
 51
103.985773
  0
ARC
  5
EC
330
1E
100
AcDbEntity
  8
CSLAYER1
  6
CONTINUOUS
 62
     3
100
AcDbCircle
 10
72.477516
 20
0.0134745
 30
0.0
 40
40.0
100
AcDbArc
 50
103.985773
 51
116.6232649999999
  0
LINE
  5
ED
330
1E
100
AcDbEntity
  8
CSLAYER1
  6
CONTINUOUS
 62
     3
100
AcDbLine
 10
54.55263149999995
 20
35.7723685
 30
0.0
 11
54.55263149999995
 21
34.7723685
 31
0.0
  0
LINE
  5
EE
330
1E
100
AcDbEntity
  8
CSLAYER1
  6
CONTINUOUS
 62
     3
100
AcDbLine
 10
54.55263149999995
 20
34.7723685
 30
0.0
 11
122.3076335
 21
34.7723685
 31
0.0
  0
ARC
  5
EF
330
1E
100
AcDbEntity
  8
CSLAYER1
  6
CONTINUOUS
 62
     3
100
AcDbCircle
 10
122.3076335
 20
54.7723685
 30
0.0
 40
20.0
100
AcDbArc
 50
270.0
 51
288.194872
  0
ARC
  5
F0
330
1E
100
AcDbEntity
  8
CSLAYER1
  6
CONTINUOUS
 62
     3
100
AcDbCircle
 10
124.261343
 20
64.69823050000001
 30
0.0
 40
1.5
100
AcDbArc
 50
275.931527
 51
322.125016
  0
LINE
  5
F1
330
1E
100
AcDbEntity
  8
CSLAYER1
  6
CONTINUOUS
 62
     3
100
AcDbLine
 10
125.4453715
 20
63.77731999999995
 30
0.0
 11
128.5526315
 21
67.7723685
 31
0.0
  0
LINE
  5
F2
330
1E
100
AcDbEntity
  8
CSLAYER1
  6
CONTINUOUS
 62
     3
100
AcDbLine
 10
128.5526315
 20
67.7723685
 30
0.0
 11
92.77760349999995
 21
67.7723685
 31
0.0
  0
LINE
  5
F3
330
1E
100
AcDbEntity
  8
CSLAYER1
  6
CONTINUOUS
 62
     3
100
AcDbLine
 10
93.11949099999997
 20
67.7723685
 30
0.0
 11
90.65096
 21
59.69816899999995
 31
0.0
  0
LINE
  5
F4
330
1E
100
AcDbEntity
  8
CSLAYER1
  6
CONTINUOUS
 62
     3
100
AcDbLine
 10
86.55263149999996
 20
59.2723685
 30
0.0
 11
71.2559245
 21
59.2723685
 31
0.0
  0
LINE
  5
F5
330
1E
100
AcDbEntity
  8
CSLAYER1
  6
CONTINUOUS
 62
     3
100
AcDbLine
 10
67.07857999999989
 20
78.2062905
 30
0.0
 11
64.813364
 21
78.2062905
 31
0.0
  0
LINE
  5
F6
330
1E
100
AcDbEntity
  8
CSLAYER1
  6
CONTINUOUS
 62
     3
100
AcDbLine
 10
71.2559245
 20
79.27236849999996
 30
0.0
 11
86.55263149999996
 21
79.27236849999996
 31
0.0
  0
LINE
  5
F7
330
1E
100
AcDbEntity
  8
CSLAYER1
  6
CONTINUOUS
 62
     3
100
AcDbLine
 10
86.55263149999996
 20
79.27236849999996
 30
0.0
 11
124.416353
 21
75.33847549999996
 31
0.0
  0
ARC
  5
F8
330
1E
100
AcDbEntity
  8
CSLAYER1
  6
CONTINUOUS
 62
     3
100
AcDbCircle
 10
124.261343
 20
73.846506
 30
0.0
 40
1.5
100
AcDbArc
 50
37.874984
 51
84.068473
  0
LINE
  5
F9
330
1E
100
AcDbEntity
  8
CSLAYER1
  6
CONTINUOUS
 62
     3
100
AcDbLine
 10
125.4453715
 20
74.76741700000001
 30
0.0
 11
128.5526315
 21
70.7723685
 31
0.0
  0
LINE
  5
FA
330
1E
100
AcDbEntity
  8
CSLAYER1
  6
CONTINUOUS
 62
     3
100
AcDbLine
 10
128.5526315
 20
70.7723685
 30
0.0
 11
92.77760349999995
 21
70.7723685
 31
0.0
  0
ARC
  5
FB
330
1E
100
AcDbEntity
  8
CSLAYER1
  6
CONTINUOUS
 62
     3
100
AcDbCircle
 10
92.77760349999995
 20
70.0223685
 30
0.0
 40
0.75
100
AcDbArc
 50
90.0
 51
183.8225539999998
  0
ARC
  5
FC
330
1E
100
AcDbEntity
  8
CSLAYER1
  6
CONTINUOUS
 62
     3
100
AcDbCircle
 10
92.77760349999995
 20
68.52236849999996
 30
0.0
 40
0.75
100
AcDbArc
 50
176.1774459999999
 51
270.0
  0
CIRCLE
  5
FD
330
1E
100
AcDbEntity
  8
CSLAYER1
  6
CONTINUOUS
 62
     3
100
AcDbCircle
 10
81.55263149999994
 20
69.27236849999999
 30
0.0
 40
6.4
  0
CIRCLE
  5
FE
330
1E
100
AcDbEntity
  8
CSLAYER1
  6
CONTINUOUS
 62
     3
100
AcDbCircle
 10
81.55263149999994
 20
69.27236849999999
 30
0.0
 40
2.049999999999998
  0
ARC
  5
FF
330
1E
100
AcDbEntity
  8
CSLAYER1
  6
CONTINUOUS
 62
     3
100
AcDbCircle
 10
81.55263149999994
 20
69.27236849999999
 30
0.0
 40
10.5
100
AcDbArc
 50
287.75279
 51
3.822554
  0
LINE
  5
100
330
1E
100
AcDbEntity
  8
CSLAYER1
  6
CONTINUOUS
 62
     3
100
AcDbLine
 10
86.55263149999996
 20
59.2723685
 30
0.0
 11
124.416353
 21
63.20626149999995
 31
0.0
  0
LINE
  5
101
330
1E
100
AcDbEntity
  8
CSLAYER1
  6
CONTINUOUS
 62
     3
100
AcDbLine
 10
124.0526314999999
 20
67.7723685
 30
0.0
 11
124.0526314999999
 21
70.7723685
 31
0.0
  0
LINE
  5
102
330
1E
100
AcDbEntity
  8
CSLAYER1
  6
CONTINUOUS
 62
     3
100
AcDbLine
 10
119.0526314999999
 20
70.7723685
 30
0.0
 11
119.0526314999999
 21
67.7723685
 31
0.0
  0
LINE
  5
103
330
1E
100
AcDbEntity
  8
CSLAYER1
  6
CONTINUOUS
 62
     3
100
AcDbLine
 10
90.54215400000002
 20
43.7723685
 30
0.0
 11
90.54215400000002
 21
40.0223685
 31
0.0
  0
LINE
  5
104
330
1E
100
AcDbEntity
  8
CSLAYER1
  6
CONTINUOUS
 62
     3
100
AcDbLine
 10
89.79215400000001
 20
39.27236849999999
 30
0.0
 11
73.31016999999995
 21
39.27236849999999
 31
0.0
  0
ARC
  5
105
330
1E
100
AcDbEntity
  8
CSLAYER1
  6
CONTINUOUS
 62
     3
100
AcDbCircle
 10
73.31016999999995
 20
38.5223685
 30
0.0
 40
0.75
100
AcDbArc
 50
90.0
 51
180.0
  0
LINE
  5
106
330
1E
100
AcDbEntity
  8
CSLAYER1
  6
CONTINUOUS
 62
     3
100
AcDbLine
 10
72.56016999999996
 20
38.5223685
 30
0.0
 11
72.56016999999996
 21
34.7723685
 31
0.0
  0
LINE
  5
107
330
1E
100
AcDbEntity
  8
CSLAYER1
  6
CONTINUOUS
 62
     3
100
AcDbLine
 10
78.35106949999991
 20
34.7723685
 30
0.0
 11
78.35106949999991
 21
38.7723685
 31
0.0
  0
LINE
  5
108
330
1E
100
AcDbEntity
  8
CSLAYER1
  6
CONTINUOUS
 62
     3
100
AcDbLine
 10
78.35106949999991
 20
38.7723685
 30
0.0
 11
78.85106949999991
 21
39.27236849999999
 31
0.0
  0
LINE
  5
109
330
1E
100
AcDbEntity
  8
CSLAYER1
  6
CONTINUOUS
 62
     3
100
AcDbLine
 10
84.25419349999996
 20
39.27236849999999
 30
0.0
 11
84.75419349999995
 21
39.7723685
 31
0.0
  0
LINE
  5
10A
330
1E
100
AcDbEntity
  8
CSLAYER1
  6
CONTINUOUS
 62
     3
100
AcDbLine
 10
84.75419349999995
 20
39.7723685
 30
0.0
 11
84.75419349999995
 21
43.7723685
 31
0.0
  0
ARC
  5
10B
330
1E
100
AcDbEntity
  8
CSLAYER1
  6
CONTINUOUS
 62
     3
100
AcDbCircle
 10
89.79215400000001
 20
40.0223685
 30
0.0
 40
0.75
100
AcDbArc
 50
270.0
 51
0.0
  0
ARC
  5
10C
330
1E
100
AcDbEntity
  8
CSLAYER1
  6
CONTINUOUS
 62
     3
100
AcDbCircle
 10
67.05263149999989
 20
40.7723685
 30
0.0
 40
1.5
100
AcDbArc
 50
270.0
 51
0.0
  0
LINE
  5
10D
330
1E
100
AcDbEntity
  8
CSLAYER1
  6
CONTINUOUS
 62
     3
100
AcDbLine
 10
54.55263149999995
 20
68.2723685
 30
0.0
 11
54.55263149999995
 21
70.2723685
 31
0.0
  0
LINE
  5
10E
330
1E
100
AcDbEntity
  8
CSLAYER1
  6
CONTINUOUS
 62
     3
100
AcDbLine
 10
54.84259350000001
 20
70.7005165
 30
0.0
 11
68.04098849999995
 21
70.7005165
 31
0.0
  0
LINE
  5
10F
330
1E
100
AcDbEntity
  8
CSLAYER1
  6
CONTINUOUS
 62
     3
100
AcDbLine
 10
69.86965050000001
 20
70.39254999999996
 30
0.0
 11
72.56016999999996
 21
79.19284399999995
 31
0.0
  0
ARC
  5
110
330
1E
100
AcDbEntity
  8
CSLAYER1
  6
CONTINUOUS
 62
     3
100
AcDbCircle
 10
71.2559245
 20
59.2723685
 30
0.0
 40
20.0
100
AcDbArc
 50
90.0
 51
146.632987
  0
LINE
  5
111
330
1E
100
AcDbEntity
  8
CSLAYER1
  6
CONTINUOUS
 62
     3
100
AcDbLine
 10
54.55263149999995
 20
69.27236849999999
 30
0.0
 11
68.55263149999989
 21
69.27236849999999
 31
0.0
  0
ARC
  5
112
330
1E
100
AcDbEntity
  8
CSLAYER1
  6
CONTINUOUS
 62
     3
100
AcDbCircle
 10
71.2559245
 20
79.27236849999996
 30
0.0
 40
20.0
100
AcDbArc
 50
213.3670129999999
 51
270.0
  0
ARC
  5
113
330
1E
100
AcDbEntity
  8
CSLAYER1
  6
CONTINUOUS
 62
     3
100
AcDbCircle
 10
81.55263149999994
 20
69.27236849999999
 30
0.0
 40
10.5
100
AcDbArc
 50
107.7527899999999
 51
170.7037949999999
  0
LINE
  5
114
330
1E
100
AcDbEntity
  8
CSLAYER1
  6
CONTINUOUS
 62
     3
100
AcDbLine
 10
31.7526315
 20
79.27236849999996
 30
0.0
 11
27.25263149999999
 21
79.27236849999996
 31
0.0
  0
LINE
  5
115
330
1E
100
AcDbEntity
  8
CSLAYER1
  6
CONTINUOUS
 62
     3
100
AcDbLine
 10
27.25263149999999
 20
79.27236849999996
 30
0.0
 11
27.25263149999999
 21
59.2723685
 31
0.0
  0
LINE
  5
116
330
1E
100
AcDbEntity
  8
CSLAYER1
  6
CONTINUOUS
 62
     3
100
AcDbLine
 10
27.25263149999999
 20
59.2723685
 30
0.0
 11
31.7526315
 21
59.2723685
 31
0.0
  0
LINE
  5
117
330
1E
100
AcDbEntity
  8
CSLAYER1
  6
CONTINUOUS
 62
     3
100
AcDbLine
 10
31.7526315
 20
60.338446
 30
0.0
 11
28.25263149999999
 21
67.84422049999995
 31
0.0
  0
LINE
  5
118
330
1E
100
AcDbEntity
  8
CSLAYER1
  6
CONTINUOUS
 62
     3
100
AcDbLine
 10
28.25263149999999
 20
67.84422049999995
 30
0.0
 11
27.25263149999999
 21
69.27236849999999
 31
0.0
  0
LINE
  5
119
330
1E
100
AcDbEntity
  8
CSLAYER1
  6
CONTINUOUS
 62
     3
100
AcDbLine
 10
27.25263149999999
 20
69.27236849999999
 30
0.0
 11
28.25263149999999
 21
70.7005165
 31
0.0
  0
LINE
  5
11A
330
1E
100
AcDbEntity
  8
CSLAYER1
  6
CONTINUOUS
 62
     3
100
AcDbLine
 10
28.25263149999999
 20
70.7005165
 30
0.0
 11
31.7526315
 21
78.2062905
 31
0.0
  0
ARC
  5
11B
330
1E
100
AcDbEntity
  8
CSLAYER1
  6
DASHED
 62
     4
100
AcDbCircle
 10
67.55263149999989
 20
35.81403549999999
 30
0.0
 40
1.0
100
AcDbArc
 50
270.0
 51
0.0
  0
LINE
  5
11C
330
1E
100
AcDbEntity
  8
CSLAYER1
  6
DASHED
 62
     4
100
AcDbLine
 10
68.55263149999989
 20
35.81403549999999
 30
0.0
 11
68.55263149999989
 21
40.7723685
 31
0.0
  0
LINE
  5
11D
330
1E
100
AcDbEntity
  8
CSLAYER1
  6
CENTER
 62
     4
100
AcDbLine
 10
69.518106
 20
39.27236849999999
 30
0.0
 11
72.56016999999996
 21
39.27236849999999
 31
0.0
  0
LINE
  5
11E
330
1E
100
AcDbEntity
  8
CSLAYER1
  6
CENTER
 62
     4
100
AcDbLine
 10
81.55263149999994
 20
31.54779699999999
 30
0.0
 11
81.55263149999994
 21
45.68674399999999
 31
0.0
  0
LINE
  5
11F
330
1E
100
AcDbEntity
  8
CSLAYER1
  6
CENTER
 62
     4
100
AcDbLine
 10
81.55263149999994
 20
54.87236850000001
 30
0.0
 11
81.55263149999994
 21
83.0723685
 31
0.0
  0
LINE
  5
120
330
1E
100
AcDbEntity
  8
CSLAYER1
  6
CENTER
 62
     4
100
AcDbLine
 10
97.55263149999997
 20
64.3806775
 30
0.0
 11
97.55263149999997
 21
74.02859949999999
 31
0.0
  0
LINE
  5
121
330
1E
100
AcDbEntity
  8
CSLAYER1
  6
CENTER
 62
     4
100
AcDbLine
 10
121.5526314999999
 20
73.19808249999995
 30
0.0
 11
121.5526314999999
 21
65.05179699999999
 31
0.0
  0
LINE
  5
122
330
1E
100
AcDbEntity
  8
CSLAYER1
  6
CENTER
 62
     4
100
AcDbLine
 10
131.4508135
 20
69.27236849999999
 30
0.0
 11
68.77408850000001
 21
69.27236849999999
 31
0.0
  0
LINE
  5
123
330
1E
100
AcDbEntity
  8
CSLAYER1
  6
CENTER
 62
     4
100
AcDbLine
 10
90.54215400000002
 20
39.27236849999999
 30
0.0
 11
94.18774999999996
 21
39.27236849999999
 31
0.0
  0
LINE
  5
124
330
1E
100
AcDbEntity
  8
CSLAYER1
  6
CENTER
 62
     4
100
AcDbLine
 10
121.7166314999999
 20
39.27236849999999
 30
0.0
 11
134.8926314999999
 21
39.27236849999999
 31
0.0
  0
LINE
  5
125
330
1E
100
AcDbEntity
  8
CSLAYER1
  6
CENTER
 62
     4
100
AcDbLine
 10
37.04735649999999
 20
69.27236849999999
 30
0.0
 11
24.71591749999999
 21
69.27236849999999
 31
0.0
  0
ARC
  5
126
330
1E
100
AcDbEntity
  8
CSLAYER1
  6
CONTINUOUS
 62
     3
100
AcDbCircle
 10
31.0526315
 20
69.27236849999999
 30
0.0
 40
37.5
100
AcDbArc
 50
345.158944
 51
14.841056
  0
LINE
  5
127
330
1E
100
AcDbEntity
  8
CSLAYER1
  6
CONTINUOUS
 62
     3
100
AcDbLine
 10
68.550498
 20
68.8723685
 30
0.0
 11
68.72336800000001
 21
68.8723685
 31
0.0
  0
ARC
  5
128
330
1E
100
AcDbEntity
  8
CSLAYER1
  6
CONTINUOUS
 62
     3
100
AcDbCircle
 10
68.72336800000001
 20
71.3723685
 30
0.0
 40
2.5
100
AcDbArc
 50
270.0
 51
350.703795
  0
ARC
  5
129
330
1E
100
AcDbEntity
  8
CSLAYER1
  6
CONTINUOUS
 62
     3
100
AcDbCircle
 10
68.72336800000001
 20
67.1723685
 30
0.0
 40
2.5
100
AcDbArc
 50
57.14012
 51
90.0
  0
LINE
  5
12A
330
1E
100
AcDbEntity
  8
CSLAYER1
  6
CONTINUOUS
 62
     3
100
AcDbLine
 10
69.14946850000001
 20
69.6723685
 30
0.0
 11
68.550498
 21
69.6723685
 31
0.0
  0
LINE
  5
12B
330
1E
100
AcDbEntity
  8
CSLAYER1
  6
CONTINUOUS
 62
     3
100
AcDbLine
 10
69.14946850000001
 20
69.6723685
 30
0.0
 11
69.86965050000001
 21
70.39254999999996
 31
0.0
  0
ARC
  5
12C
330
1E
100
AcDbEntity
  8
CSLAYER1
  6
CONTINUOUS
 62
     3
100
AcDbCircle
 10
68.04098849999995
 20
70.2005165
 30
0.0
 40
0.5
100
AcDbArc
 50
1.437419999999999
 51
90.0
  0
ARC
  5
12D
330
1E
100
AcDbEntity
  8
CSLAYER1
  6
CONTINUOUS
 62
     3
100
AcDbCircle
 10
67.07857999999989
 20
77.70629050000001
 30
0.0
 40
0.5
100
AcDbArc
 50
13.176047
 51
90.0
  0
ARC
  5
12E
330
1E
100
AcDbEntity
  8
CSLAYER1
  6
CONTINUOUS
 62
     3
100
AcDbCircle
 10
68.04098849999995
 20
68.34422049999995
 30
0.0
 40
0.5
100
AcDbArc
 50
270.0
 51
358.5625799999998
  0
ARC
  5
12F
330
1E
100
AcDbEntity
  8
CSLAYER1
  6
CONTINUOUS
 62
     3
100
AcDbCircle
 10
67.07857999999989
 20
60.83844599999999
 30
0.0
 40
0.5
100
AcDbArc
 50
270.0
 51
346.8239529999998
  0
LINE
  5
130
330
1E
100
AcDbEntity
  8
CSLAYER1
  6
CONTINUOUS
 62
     3
100
AcDbLine
 10
54.84259350000001
 20
67.84422049999995
 30
0.0
 11
68.04098849999995
 21
67.84422049999995
 31
0.0
  0
LINE
  5
131
330
1E
100
AcDbEntity
  8
CSLAYER1
  6
CONTINUOUS
 62
     3
100
AcDbLine
 10
67.07857999999989
 20
60.338446
 30
0.0
 11
64.813364
 21
60.338446
 31
0.0
  0
LINE
  5
132
330
1E
100
AcDbEntity
  8
CSLAYER1
  6
CENTER
 62
     4
100
AcDbLine
 10
54.55263149999995
 20
69.27236849999999
 30
0.0
 11
51.94769649999995
 21
69.27236849999999
 31
0.0
  0
LINE
  5
135
330
1E
100
AcDbEntity
  8
CSLAYER1
  6
CONTINUOUS
 62
     3
100
AcDbLine
 10
31.7526315
 20
79.27236849999996
 30
0.0
 11
31.7526315
 21
78.2062905
 31
0.0
  0
LINE
  5
136
330
1E
100
AcDbEntity
  8
CSLAYER1
  6
CONTINUOUS
 62
     3
100
AcDbLine
 10
31.7526315
 20
59.2723685
 30
0.0
 11
31.7526315
 21
60.338446
 31
0.0
  0
LINE
  5
139
330
1E
100
AcDbEntity
  8
CSLAYER1
  6
CONTINUOUS
 62
     3
100
AcDbLine
 10
46.3471605
 20
26.061162
 30
0.0
 11
44.10105699999999
 21
26.3548015
 31
0.0
  0
LINE
  5
13A
330
1E
100
AcDbEntity
  8
CSLAYER1
  6
CONTINUOUS
 62
     3
100
AcDbLine
 10
50.627454
 20
26.5767375
 30
0.0
 11
59.54098599999995
 21
25.4114475
 31
0.0
  0
CIRCLE
  5
13B
330
1E
100
AcDbEntity
  8
CSLAYER1
  6
CONTINUOUS
 62
     3
100
AcDbCircle
 10
59.54098599999995
 20
15.326354
 30
0.0
 40
6.4
  0
CIRCLE
  5
13C
330
1E
100
AcDbEntity
  8
CSLAYER1
  6
CONTINUOUS
 62
     3
100
AcDbCircle
 10
59.54098599999995
 20
15.326354
 30
0.0
 40
2.049999999999998
  0
LINE
  5
13D
330
1E
100
AcDbEntity
  8
CSLAYER1
  6
CONTINUOUS
 62
     3
100
AcDbLine
 10
32.768799
 20
18.826354
 30
0.0
 11
32.89842849999998
 21
19.81791649999999
 31
0.0
  0
LINE
  5
13E
330
1E
100
AcDbEntity
  8
CSLAYER1
  6
CONTINUOUS
 62
     3
100
AcDbLine
 10
33.241445
 20
20.20486449999999
 30
0.0
 11
46.328478
 21
18.49396149999999
 31
0.0
  0
LINE
  5
13F
330
1E
100
AcDbEntity
  8
CSLAYER1
  6
CONTINUOUS
 62
     3
100
AcDbLine
 10
48.101789
 20
17.9515445
 30
0.0
 11
51.91038599999995
 21
26.328815
 31
0.0
  0
ARC
  5
140
330
1E
100
AcDbEntity
  8
CSLAYER1
  6
CONTINUOUS
 62
     3
100
AcDbCircle
 10
48.0348615
 20
6.7454875
 30
0.0
 40
20.0
100
AcDbArc
 50
82.55180899999997
 51
139.1847959999997
  0
LINE
  5
141
330
1E
100
AcDbEntity
  8
CSLAYER1
  6
CONTINUOUS
 62
     3
100
AcDbLine
 10
32.768799
 20
18.826354
 30
0.0
 11
46.6506735
 21
17.01153949999999
 31
0.0
  0
ARC
  5
142
330
1E
100
AcDbEntity
  8
CSLAYER1
  6
CONTINUOUS
 62
     3
100
AcDbCircle
 10
59.54098599999995
 20
15.326354
 30
0.0
 40
10.5
100
AcDbArc
 50
115.200981
 51
178.151985
  0
LINE
  5
143
330
1E
100
AcDbEntity
  8
CSLAYER1
  6
CONTINUOUS
 62
     3
100
AcDbLine
 10
18.35126499999998
 20
28.82635399999999
 30
0.0
 11
13.851265
 21
28.82635399999999
 31
0.0
  0
LINE
  5
144
330
1E
100
AcDbEntity
  8
CSLAYER1
  6
CONTINUOUS
 62
     3
100
AcDbLine
 10
13.851265
 20
28.82635399999999
 30
0.0
 11
13.851265
 21
18.826354
 31
0.0
  0
LINE
  5
145
330
1E
100
AcDbEntity
  8
CSLAYER1
  6
CONTINUOUS
 62
     3
100
AcDbLine
 10
13.851265
 20
18.826354
 30
0.0
 11
14.85126499999999
 21
20.25450199999998
 31
0.0
  0
LINE
  5
146
330
1E
100
AcDbEntity
  8
CSLAYER1
  6
CONTINUOUS
 62
     3
100
AcDbLine
 10
14.85126499999999
 20
20.25450199999998
 30
0.0
 11
18.35126499999998
 21
27.7602765
 31
0.0
  0
LINE
  5
147
330
1E
100
AcDbEntity
  8
CSLAYER1
  6
CENTER
 62
     4
100
AcDbLine
 10
59.54098599999995
 20
2.689663499999999
 30
0.0
 11
59.54098599999995
 21
29.126354
 31
0.0
  0
LINE
  5
148
330
1E
100
AcDbEntity
  8
CSLAYER1
  6
CENTER
 62
     4
100
AcDbLine
 10
68.61833299999995
 20
15.326354
 30
0.0
 11
30.497909
 21
15.326354
 31
0.0
  0
LINE
  5
149
330
1E
100
AcDbEntity
  8
CSLAYER1
  6
CENTER
 62
     4
100
AcDbLine
 10
22.2249765
 20
15.326354
 30
0.0
 11
11.31455099999999
 21
15.326354
 31
0.0
  0
ARC
  5
14A
330
1E
100
AcDbEntity
  8
CSLAYER1
  6
CONTINUOUS
 62
     3
100
AcDbCircle
 10
9.46708049999999
 20
21.8726505
 30
0.0
 40
37.5
100
AcDbArc
 50
352.5518089999998
 51
7.392864999999997
  0
ARC
  5
14B
330
1E
100
AcDbEntity
  8
CSLAYER1
  6
CONTINUOUS
 62
     3
100
AcDbCircle
 10
46.5477475
 20
14.9071255
 30
0.0
 40
2.5
100
AcDbArc
 50
9.65362
 51
82.55180899999997
  0
LINE
  5
14C
330
1E
100
AcDbEntity
  8
CSLAYER1
  6
CONTINUOUS
 62
     3
100
AcDbLine
 10
47.294327
 20
17.33079649999999
 30
0.0
 11
46.70041
 21
17.408441
 31
0.0
  0
LINE
  5
14D
330
1E
100
AcDbEntity
  8
CSLAYER1
  6
CONTINUOUS
 62
     3
100
AcDbLine
 10
47.294327
 20
17.33079649999999
 30
0.0
 11
48.101789
 21
17.9515445
 31
0.0
  0
ARC
  5
14E
330
1E
100
AcDbEntity
  8
CSLAYER1
  6
CONTINUOUS
 62
     3
100
AcDbCircle
 10
46.26366299999999
 20
17.99817999999998
 30
0.0
 40
0.5
100
AcDbArc
 50
353.9892299999998
 51
82.55180899999997
  0
ARC
  5
14F
330
1E
100
AcDbEntity
  8
CSLAYER1
  6
CONTINUOUS
 62
     3
100
AcDbCircle
 10
46.2823455
 20
25.565381
 30
0.0
 40
0.5
100
AcDbArc
 50
5.727857
 51
82.55180899999997
  0
LINE
  5
150
330
1E
100
AcDbEntity
  8
CSLAYER1
  6
CONTINUOUS
 62
     3
100
AcDbLine
 10
18.35126499999998
 20
28.82635399999999
 30
0.0
 11
18.35126499999998
 21
27.7602765
 31
0.0
  0
LINE
  5
152
330
1E
100
AcDbEntity
  8
CSLAYER1
  6
CONTINUOUS
 62
     3
100
AcDbLine
 10
18.35126499999998
 20
1.826354
 30
0.0
 11
13.851265
 21
1.826354
 31
0.0
  0
LINE
  5
153
330
1E
100
AcDbEntity
  8
CSLAYER1
  6
CONTINUOUS
 62
     3
100
AcDbLine
 10
13.851265
 20
1.826354
 30
0.0
 11
13.851265
 21
11.82635399999998
 31
0.0
  0
LINE
  5
154
330
1E
100
AcDbEntity
  8
CSLAYER1
  6
CONTINUOUS
 62
     3
100
AcDbLine
 10
13.851265
 20
11.82635399999998
 30
0.0
 11
14.85126499999999
 21
10.398206
 31
0.0
  0
LINE
  5
155
330
1E
100
AcDbEntity
  8
CSLAYER1
  6
CONTINUOUS
 62
     3
100
AcDbLine
 10
14.85126499999999
 20
10.398206
 30
0.0
 11
18.35126499999998
 21
2.892431999999999
 31
0.0
  0
LINE
  5
156
330
1E
100
AcDbEntity
  8
CSLAYER1
  6
CONTINUOUS
 62
     3
100
AcDbLine
 10
18.35126499999998
 20
1.826354
 30
0.0
 11
18.35126499999998
 21
2.892431999999999
 31
0.0
  0
LINE
  5
157
330
1E
100
AcDbEntity
  8
CSLAYER1
  6
CONTINUOUS
 62
     3
100
AcDbLine
 10
46.3471605
 20
4.591546
 30
0.0
 11
44.10105699999999
 21
4.297907
 31
0.0
  0
LINE
  5
158
330
1E
100
AcDbEntity
  8
CSLAYER1
  6
CONTINUOUS
 62
     3
100
AcDbLine
 10
50.627454
 20
4.075971
 30
0.0
 11
65.79509449999995
 21
6.0588775
 31
0.0
  0
LINE
  5
159
330
1E
100
AcDbEntity
  8
CSLAYER1
  6
CONTINUOUS
 62
     3
100
AcDbLine
 10
32.768799
 20
11.82635399999998
 30
0.0
 11
32.89842849999998
 21
10.8347915
 31
0.0
  0
LINE
  5
15A
330
1E
100
AcDbEntity
  8
CSLAYER1
  6
CONTINUOUS
 62
     3
100
AcDbLine
 10
33.241445
 20
10.44784399999999
 30
0.0
 11
46.328478
 21
12.158747
 31
0.0
  0
ARC
  5
15B
330
1E
100
AcDbEntity
  8
CSLAYER1
  6
CONTINUOUS
 62
     3
100
AcDbCircle
 10
48.0348615
 20
23.90722049999999
 30
0.0
 40
20.0
100
AcDbArc
 50
220.8152039999998
 51
277.4481909999999
  0
LINE
  5
15C
330
1E
100
AcDbEntity
  8
CSLAYER1
  6
CONTINUOUS
 62
     3
100
AcDbLine
 10
32.768799
 20
11.82635399999998
 30
0.0
 11
46.6506735
 21
13.64116899999999
 31
0.0
  0
ARC
  5
15D
330
1E
100
AcDbEntity
  8
CSLAYER1
  6
CONTINUOUS
 62
     3
100
AcDbCircle
 10
9.46708049999999
 20
8.780058
 30
0.0
 40
37.5
100
AcDbArc
 50
352.6071349999998
 51
7.448191000000001
  0
ARC
  5
15E
330
1E
100
AcDbEntity
  8
CSLAYER1
  6
CONTINUOUS
 62
     3
100
AcDbCircle
 10
46.5477475
 20
15.7455825
 30
0.0
 40
2.5
100
AcDbArc
 50
277.4481909999999
 51
358.151985
  0
LINE
  5
15F
330
1E
100
AcDbEntity
  8
CSLAYER1
  6
CONTINUOUS
 62
     3
100
AcDbLine
 10
46.8718215
 20
13.2666765
 30
0.0
 11
46.70041
 21
13.24426749999999
 31
0.0
  0
ARC
  5
160
330
1E
100
AcDbEntity
  8
CSLAYER1
  6
CONTINUOUS
 62
     3
100
AcDbCircle
 10
46.26366299999999
 20
12.654528
 30
0.0
 40
0.5
100
AcDbArc
 50
277.4481909999999
 51
6.010769999999999
  0
ARC
  5
161
330
1E
100
AcDbEntity
  8
CSLAYER1
  6
CONTINUOUS
 62
     3
100
AcDbCircle
 10
46.2823455
 20
5.087327499999995
 30
0.0
 40
0.5
100
AcDbArc
 50
277.4481909999999
 51
354.272143
  0
LINE
  5
162
330
1E
100
AcDbEntity
  8
CSLAYER1
  6
CONTINUOUS
 62
     3
100
AcDbLine
 10
55.07014100000001
 20
24.8269615
 30
0.0
 11
63.202502
 21
25.890127
 31
0.0
  0
LINE
  5
166
330
1E
100
AcDbEntity
  8
CSLAYER1
  6
DOT
 62
     3
100
AcDbLine
 10
2.5
 20
0.5
 30
0.0
 11
142.0
 21
0.5
 31
0.0
  0
LINE
  5
167
330
1E
100
AcDbEntity
  8
CSLAYER1
  6
DOT
 62
     3
100
AcDbLine
 10
142.0
 20
0.5
 30
0.0
 11
142.0
 21
97.5
 31
0.0
  0
LINE
  5
168
330
1E
100
AcDbEntity
  8
CSLAYER1
  6
DOT
 62
     3
100
AcDbLine
 10
142.0
 20
97.5
 30
0.0
 11
2.5
 21
97.5
 31
0.0
  0
LINE
  5
169
330
1E
100
AcDbEntity
  8
CSLAYER1
  6
DOT
 62
     3
100
AcDbLine
 10
2.5
 20
97.5
 30
0.0
 11
2.5
 21
0.5
 31
0.0
  0
LINE
  5
16A
330
1E
100
AcDbEntity
  8
CSLAYER1
  6
DOT
 62
     3
100
AcDbLine
 10
72.25
 20
97.5
 30
0.0
 11
72.25
 21
99.50000000000001
 31
0.0
  0
LINE
  5
16B
330
1E
100
AcDbEntity
  8
CSLAYER1
  6
DOT
 62
     3
100
AcDbLine
 10
2.5
 20
49.0
 30
0.0
 11
0.5
 21
49.0
 31
0.0
  0
LINE
  5
16C
330
1E
100
AcDbEntity
  8
CSLAYER1
  6
DOT
 62
     3
100
AcDbLine
 10
142.0
 20
49.0
 30
0.0
 11
144.0
 21
49.0
 31
0.0
  0
TEXT
  5
1AF
330
1E
100
AcDbEntity
  8
CSLAYER1
 62
     4
100
AcDbText
 10
66.5526275
 20
90.62279499999997
 30
0.0
 40
1.5
  1
27
 41
1.199999999999982
 51
15.0
  7
FX_FONT
 72
     5
 11
69.55262749999995
 21
90.62279499999997
 31
0.0
100
AcDbText
  0
LINE
  5
1B0
330
1E
100
AcDbEntity
  8
CSLAYER1
 62
     4
100
AcDbLine
 10
54.55263149999995
 20
90.12279599999997
 30
0.0
 11
81.55263149999994
 21
90.12279599999997
 31
0.0
  0
LINE
  5
1B1
330
1E
100
AcDbEntity
  8
CSLAYER1
 62
     4
100
AcDbLine
 10
54.55263149999995
 20
90.12279599999997
 30
0.0
 11
56.0015205
 21
90.5110245
 31
0.0
  0
LINE
  5
1B2
330
1E
100
AcDbEntity
  8
CSLAYER1
 62
     4
100
AcDbLine
 10
54.55263149999995
 20
90.12279599999997
 30
0.0
 11
56.0015205
 21
89.73456750000002
 31
0.0
  0
LINE
  5
1B3
330
1E
100
AcDbEntity
  8
CSLAYER1
 62
     4
100
AcDbLine
 10
81.55263149999994
 20
90.12279599999997
 30
0.0
 11
80.103743
 21
90.5110245
 31
0.0
  0
LINE
  5
1B4
330
1E
100
AcDbEntity
  8
CSLAYER1
 62
     4
100
AcDbLine
 10
81.55263149999994
 20
90.12279599999997
 30
0.0
 11
80.103743
 21
89.73456750000002
 31
0.0
  0
LINE
  5
1B5
330
1E
100
AcDbEntity
  8
CSLAYER1
 62
     4
100
AcDbLine
 10
54.55263149999995
 20
70.7723685
 30
0.0
 11
54.55263149999995
 21
90.62279599999996
 31
0.0
  0
LINE
  5
1B6
330
1E
100
AcDbEntity
  8
CSLAYER1
 62
     4
100
AcDbLine
 10
81.55263149999994
 20
83.57236850000001
 30
0.0
 11
81.55263149999994
 21
90.62279599999996
 31
0.0
  0
TEXT
  5
1B7
330
1E
100
AcDbEntity
  8
CSLAYER1
 62
     4
100
AcDbText
 10
46.6641465
 20
66.272362
 30
0.0
 40
1.5
  1
(20)
 50
90.0
 41
1.199999999999999
 51
15.0
  7
FX_FONT
 72
     5
 11
46.6641465
 21
72.272362
 31
0.0
100
AcDbText
  0
LINE
  5
1B8
330
1E
100
AcDbEntity
  8
CSLAYER1
 62
     4
100
AcDbLine
 10
70.75592450000001
 20
59.2723685
 30
0.0
 11
46.6641465
 21
59.2723685
 31
0.0
  0
LINE
  5
1B9
330
1E
100
AcDbEntity
  8
CSLAYER1
 62
     4
100
AcDbLine
 10
70.75592450000001
 20
79.27236849999996
 30
0.0
 11
46.6641465
 21
79.27236849999996
 31
0.0
  0
LINE
  5
1BA
330
1E
100
AcDbEntity
  8
CSLAYER1
 62
     4
100
AcDbLine
 10
47.16414649999999
 20
59.2723685
 30
0.0
 11
47.16414649999999
 21
79.27236849999996
 31
0.0
  0
LINE
  5
1BB
330
1E
100
AcDbEntity
  8
CSLAYER1
 62
     4
100
AcDbLine
 10
47.16414649999999
 20
59.2723685
 30
0.0
 11
46.775918
 21
60.72125699999995
 31
0.0
  0
LINE
  5
1BC
330
1E
100
AcDbEntity
  8
CSLAYER1
 62
     4
100
AcDbLine
 10
47.16414649999999
 20
59.2723685
 30
0.0
 11
47.5523755
 21
60.72125699999995
 31
0.0
  0
LINE
  5
1BD
330
1E
100
AcDbEntity
  8
CSLAYER1
 62
     4
100
AcDbLine
 10
47.16414649999999
 20
79.27236849999996
 30
0.0
 11
46.775918
 21
77.82347950000001
 31
0.0
  0
LINE
  5
1BE
330
1E
100
AcDbEntity
  8
CSLAYER1
 62
     4
100
AcDbLine
 10
47.16414649999999
 20
79.27236849999996
 30
0.0
 11
47.5523755
 21
77.82347950000001
 31
0.0
  0
TEXT
  5
1BF
330
1E
100
AcDbEntity
  8
CSLAYER1
 62
     4
100
AcDbText
 10
49.6641465
 20
67.022362
 30
0.0
 40
1.5
  1
(2)
 50
90.0
 41
1.285714285714285
 51
15.0
  7
FX_FONT
 72
     5
 11
49.6641465
 21
71.522362
 31
0.0
100
AcDbText
  0
LINE
  5
1C0
330
1E
100
AcDbEntity
  8
CSLAYER1
 62
     4
100
AcDbLine
 10
54.05263149999999
 20
68.2723685
 30
0.0
 11
49.6641465
 21
68.2723685
 31
0.0
  0
LINE
  5
1C1
330
1E
100
AcDbEntity
  8
CSLAYER1
 62
     4
100
AcDbLine
 10
54.05263149999999
 20
70.2723685
 30
0.0
 11
49.6641465
 21
70.2723685
 31
0.0
  0
LINE
  5
1C2
330
1E
100
AcDbEntity
  8
CSLAYER1
 62
     4
100
AcDbLine
 10
50.1641465
 20
68.2723685
 30
0.0
 11
50.1641465
 21
70.2723685
 31
0.0
  0
LINE
  5
1C3
330
1E
100
AcDbEntity
  8
CSLAYER1
 62
     4
100
AcDbLine
 10
50.1641465
 20
65.27236849999995
 30
0.0
 11
50.1641465
 21
68.2723685
 31
0.0
  0
LINE
  5
1C4
330
1E
100
AcDbEntity
  8
CSLAYER1
 62
     4
100
AcDbLine
 10
50.1641465
 20
68.2723685
 30
0.0
 11
49.77591799999999
 21
66.8234795
 31
0.0
  0
LINE
  5
1C5
330
1E
100
AcDbEntity
  8
CSLAYER1
 62
     4
100
AcDbLine
 10
50.1641465
 20
68.2723685
 30
0.0
 11
50.55237550000001
 21
66.8234795
 31
0.0
  0
LINE
  5
1C6
330
1E
100
AcDbEntity
  8
CSLAYER1
 62
     4
100
AcDbLine
 10
50.1641465
 20
70.2723685
 30
0.0
 11
50.1641465
 21
73.27236849999995
 31
0.0
  0
LINE
  5
1C7
330
1E
100
AcDbEntity
  8
CSLAYER1
 62
     4
100
AcDbLine
 10
50.1641465
 20
70.2723685
 30
0.0
 11
49.77591799999999
 21
71.72125699999995
 31
0.0
  0
LINE
  5
1C8
330
1E
100
AcDbEntity
  8
CSLAYER1
 62
     4
100
AcDbLine
 10
50.1641465
 20
70.2723685
 30
0.0
 11
50.55237550000001
 21
71.72125699999995
 31
0.0
  0
TEXT
  5
1C9
330
1E
100
AcDbEntity
  8
CSLAYER1
 62
     4
100
AcDbText
 10
63.0883875
 20
62.506289
 30
0.0
 40
1.5
  1
R20
 50
65.56342351163539
 41
1.124999887645609
 51
15.0
  7
FX_FONT
 72
     5
 11
64.949973
 21
66.60317749999996
 31
0.0
100
AcDbText
  0
LINE
  5
1CA
330
1E
100
AcDbEntity
  8
CSLAYER1
 62
     4
100
AcDbLine
 10
62.98221099999995
 20
61.06397299999995
 30
0.0
 11
68.342
 21
72.85954150000001
 31
0.0
  0
LINE
  5
1CB
330
1E
100
AcDbEntity
  8
CSLAYER1
 62
     4
100
AcDbLine
 10
62.98221099999995
 20
61.06397299999995
 30
0.0
 11
63.22814449999989
 21
62.5436745
 31
0.0
  0
LINE
  5
1CC
330
1E
100
AcDbEntity
  8
CSLAYER1
 62
     4
100
AcDbLine
 10
62.98221099999995
 20
61.06397299999995
 30
0.0
 11
63.9350465
 21
62.22246550000001
 31
0.0
  0
LINE
  5
1CD
330
1E
100
AcDbEntity
  8
CSLAYER1
  6
CONTINUOUS
 62
     4
100
AcDbLine
 10
81.0220525
 20
67.29222049999996
 30
0.0
 11
77.2060795
 21
53.05081600000001
 31
0.0
  0
LINE
  5
1CE
330
1E
100
AcDbEntity
  8
CSLAYER1
  6
CONTINUOUS
 62
     4
100
AcDbLine
 10
81.0220525
 20
67.29222049999996
 30
0.0
 11
81.0220525
 21
65.79222049999995
 31
0.0
  0
LINE
  5
1CF
330
1E
100
AcDbEntity
  8
CSLAYER1
  6
CONTINUOUS
 62
     4
100
AcDbLine
 10
81.0220525
 20
67.29222049999996
 30
0.0
 11
80.27205249999999
 21
65.99318249999988
 31
0.0
  0
LINE
  5
1D0
330
1E
100
AcDbEntity
  8
CSLAYER1
  6
CONTINUOUS
 62
     4
100
AcDbLine
 10
77.2060795
 20
53.05081600000001
 30
0.0
 11
70.2060795
 21
53.05081600000001
 31
0.0
  0
TEXT
  5
1D1
330
1E
100
AcDbEntity
  8
CSLAYER1
 62
     4
100
AcDbText
 10
70.7060775
 20
53.55081550000001
 30
0.0
 40
1.5
  1
%%c4.1
 41
1.142857142857142
 51
15.0
  7
FX_FONT
 72
     5
 11
76.70607750000001
 21
53.55081550000001
 31
0.0
100
AcDbText
  0
TEXT
  5
1D2
330
1E
100
AcDbEntity
  8
CSLAYER1
 62
     4
100
AcDbText
 10
73.55263499999995
 20
48.869423
 30
0.0
 40
1.5
  1
13
 41
1.200000000000017
 51
15.0
  7
FX_FONT
 72
     5
 11
76.552635
 21
48.869423
 31
0.0
100
AcDbText
  0
LINE
  5
1D3
330
1E
100
AcDbEntity
  8
CSLAYER1
 62
     4
100
AcDbLine
 10
68.55263149999989
 20
48.3694215
 30
0.0
 11
81.55263149999994
 21
48.3694215
 31
0.0
  0
LINE
  5
1D4
330
1E
100
AcDbEntity
  8
CSLAYER1
 62
     4
100
AcDbLine
 10
68.55263149999989
 20
48.3694215
 30
0.0
 11
70.0015205
 21
48.7576505
 31
0.0
  0
LINE
  5
1D5
330
1E
100
AcDbEntity
  8
CSLAYER1
 62
     4
100
AcDbLine
 10
68.55263149999989
 20
48.3694215
 30
0.0
 11
70.0015205
 21
47.98119299999999
 31
0.0
  0
LINE
  5
1D6
330
1E
100
AcDbEntity
  8
CSLAYER1
 62
     4
100
AcDbLine
 10
81.55263149999994
 20
48.3694215
 30
0.0
 11
80.103743
 21
48.7576505
 31
0.0
  0
LINE
  5
1D7
330
1E
100
AcDbEntity
  8
CSLAYER1
 62
     4
100
AcDbLine
 10
81.55263149999994
 20
48.3694215
 30
0.0
 11
80.103743
 21
47.98119299999999
 31
0.0
  0
LINE
  5
1D8
330
1E
100
AcDbEntity
  8
CSLAYER1
 62
     4
100
AcDbLine
 10
68.55263149999989
 20
44.27236849999999
 30
0.0
 11
68.55263149999989
 21
48.8694215
 31
0.0
  0
LINE
  5
1D9
330
1E
100
AcDbEntity
  8
CSLAYER1
 62
     4
100
AcDbLine
 10
81.55263149999994
 20
46.18674399999999
 30
0.0
 11
81.55263149999994
 21
48.8694215
 31
0.0
  0
TEXT
  5
1DA
330
1E
100
AcDbEntity
  8
CSLAYER1
 62
     4
100
AcDbText
 10
45.6338995
 20
38.29737100000001
 30
0.0
 40
1.5
  1
9   
 50
90.0
 41
1.428571428571428
 51
15.0
  7
FX_FONT
 72
     5
 11
45.6338995
 21
44.29737100000001
 31
0.0
100
AcDbText
  0
TEXT
  5
1DB
330
1E
100
AcDbEntity
  8
CSLAYER1
 62
     4
100
AcDbText
 10
44.8838995
 20
44.29737100000001
 30
0.0
 40
0.75
  1
  0
 50
90.0
 41
1.607142857142857
 51
15.0
  7
FX_FONT
 72
     5
 11
44.8838995
 21
46.54737100000001
 31
0.0
100
AcDbText
  0
TEXT
  5
1DC
330
1E
100
AcDbEntity
  8
CSLAYER1
 62
     4
100
AcDbText
 10
45.6338995
 20
44.29737100000001
 30
0.0
 40
0.75
  1
-0.15
 50
90.0
 41
1.071428571428567
 51
15.0
  7
FX_FONT
 72
     5
 11
45.6338995
 21
48.047371
 31
0.0
100
AcDbText
  0
LINE
  5
1DD
330
1E
100
AcDbEntity
  8
CSLAYER1
 62
     4
100
AcDbLine
 10
54.05263149999999
 20
34.7723685
 30
0.0
 11
45.63389899999999
 21
34.7723685
 31
0.0
  0
LINE
  5
1DE
330
1E
100
AcDbEntity
  8
CSLAYER1
 62
     4
100
AcDbLine
 10
68.05263149999989
 20
43.7723685
 30
0.0
 11
45.63389899999999
 21
43.7723685
 31
0.0
  0
LINE
  5
1DF
330
1E
100
AcDbEntity
  8
CSLAYER1
 62
     4
100
AcDbLine
 10
46.133899
 20
34.7723685
 30
0.0
 11
46.133899
 21
43.7723685
 31
0.0
  0
LINE
  5
1E0
330
1E
100
AcDbEntity
  8
CSLAYER1
 62
     4
100
AcDbLine
 10
46.133899
 20
34.7723685
 30
0.0
 11
45.7456705
 21
36.221257
 31
0.0
  0
LINE
  5
1E1
330
1E
100
AcDbEntity
  8
CSLAYER1
 62
     4
100
AcDbLine
 10
46.133899
 20
34.7723685
 30
0.0
 11
46.5221275
 21
36.221257
 31
0.0
  0
LINE
  5
1E2
330
1E
100
AcDbEntity
  8
CSLAYER1
 62
     4
100
AcDbLine
 10
46.133899
 20
43.7723685
 30
0.0
 11
45.7456705
 21
42.3234795
 31
0.0
  0
LINE
  5
1E3
330
1E
100
AcDbEntity
  8
CSLAYER1
 62
     4
100
AcDbLine
 10
46.133899
 20
43.7723685
 30
0.0
 11
46.5221275
 21
42.3234795
 31
0.0
  0
TEXT
  5
1E4
330
1E
100
AcDbEntity
  8
CSLAYER1
 62
     4
100
AcDbText
 10
48.539299
 20
34.70842
 30
0.0
 40
1.5
  1
(4.5)
 50
90.0
 41
1.153846153846154
 51
15.0
  7
FX_FONT
 72
     5
 11
48.539299
 21
42.20842
 31
0.0
100
AcDbText
  0
LINE
  5
1E5
330
1E
100
AcDbEntity
  8
CSLAYER1
 62
     4
100
AcDbLine
 10
65.93549200000001
 20
39.27236849999999
 30
0.0
 11
48.68293449999999
 21
39.27236849999999
 31
0.0
  0
LINE
  5
1E6
330
1E
100
AcDbEntity
  8
CSLAYER1
 62
     4
100
AcDbLine
 10
49.1829345
 20
34.7723685
 30
0.0
 11
49.1829345
 21
39.27236849999999
 31
0.0
  0
LINE
  5
1E7
330
1E
100
AcDbEntity
  8
CSLAYER1
 62
     4
100
AcDbLine
 10
49.1829345
 20
30.549338
 30
0.0
 11
49.1829345
 21
34.7723685
 31
0.0
  0
LINE
  5
1E8
330
1E
100
AcDbEntity
  8
CSLAYER1
 62
     4
100
AcDbLine
 10
49.1829345
 20
34.7723685
 30
0.0
 11
48.794706
 21
33.32347949999999
 31
0.0
  0
LINE
  5
1E9
330
1E
100
AcDbEntity
  8
CSLAYER1
 62
     4
100
AcDbLine
 10
49.1829345
 20
34.7723685
 30
0.0
 11
49.571163
 21
33.32347949999999
 31
0.0
  0
LINE
  5
1EA
330
1E
100
AcDbEntity
  8
CSLAYER1
 62
     4
100
AcDbLine
 10
49.1829345
 20
39.27236849999999
 30
0.0
 11
49.1829345
 21
42.27236849999999
 31
0.0
  0
LINE
  5
1EB
330
1E
100
AcDbEntity
  8
CSLAYER1
 62
     4
100
AcDbLine
 10
49.1829345
 20
39.27236849999999
 30
0.0
 11
48.794706
 21
40.72125699999999
 31
0.0
  0
LINE
  5
1EC
330
1E
100
AcDbEntity
  8
CSLAYER1
 62
     4
100
AcDbLine
 10
49.1829345
 20
39.27236849999999
 30
0.0
 11
49.571163
 21
40.72125699999999
 31
0.0
  0
TEXT
  5
1ED
330
1E
100
AcDbEntity
  8
CSLAYER1
 62
     4
100
AcDbText
 10
55.30263149999996
 20
31.4687175
 30
0.0
 40
1.5
  1
切刃部有効12
 41
0.913043478260869
 51
15.0
  7
FX_FONT
 72
     5
 11
65.80263149999995
 21
31.4687175
 31
0.0
100
AcDbText
  0
LINE
  5
1EE
330
1E
100
AcDbEntity
  8
CSLAYER1
 62
     4
100
AcDbLine
 10
54.55263149999995
 20
30.968718
 30
0.0
 11
66.55263149999989
 21
30.968718
 31
0.0
  0
LINE
  5
1EF
330
1E
100
AcDbEntity
  8
CSLAYER1
 62
     4
100
AcDbLine
 10
54.55263149999995
 20
30.968718
 30
0.0
 11
56.0015205
 21
31.3569465
 31
0.0
  0
LINE
  5
1F0
330
1E
100
AcDbEntity
  8
CSLAYER1
 62
     4
100
AcDbLine
 10
54.55263149999995
 20
30.968718
 30
0.0
 11
56.0015205
 21
30.5804895
 31
0.0
  0
LINE
  5
1F1
330
1E
100
AcDbEntity
  8
CSLAYER1
 62
     4
100
AcDbLine
 10
66.55263149999989
 20
30.968718
 30
0.0
 11
65.10374300000001
 21
31.3569465
 31
0.0
  0
LINE
  5
1F2
330
1E
100
AcDbEntity
  8
CSLAYER1
 62
     4
100
AcDbLine
 10
66.55263149999989
 20
30.968718
 30
0.0
 11
65.10374300000001
 21
30.5804895
 31
0.0
  0
LINE
  5
1F3
330
1E
100
AcDbEntity
  8
CSLAYER1
 62
     4
100
AcDbLine
 10
54.55263149999995
 20
34.27236849999999
 30
0.0
 11
54.55263149999995
 21
30.46871799999999
 31
0.0
  0
LINE
  5
1F4
330
1E
100
AcDbEntity
  8
CSLAYER1
 62
     4
100
AcDbLine
 10
66.55263149999989
 20
34.27236849999999
 30
0.0
 11
66.55263149999989
 21
30.46871799999999
 31
0.0
  0
TEXT
  5
1F5
330
1E
100
AcDbEntity
  8
CSLAYER1
 62
     4
100
AcDbText
 10
26.755684
 20
14.576354
 30
0.0
 40
1.5
  1
7
 50
90.0
 41
1.500000000000001
 51
15.0
  7
FX_FONT
 72
     5
 11
26.755684
 21
16.076354
 31
0.0
100
AcDbText
  0
LINE
  5
1F6
330
1E
100
AcDbEntity
  8
CSLAYER1
 62
     4
100
AcDbLine
 10
27.2556825
 20
11.82635399999998
 30
0.0
 11
27.2556825
 21
18.826354
 31
0.0
  0
LINE
  5
1F7
330
1E
100
AcDbEntity
  8
CSLAYER1
 62
     4
100
AcDbLine
 10
27.2556825
 20
11.82635399999998
 30
0.0
 11
26.86745399999999
 21
13.275243
 31
0.0
  0
LINE
  5
1F8
330
1E
100
AcDbEntity
  8
CSLAYER1
 62
     4
100
AcDbLine
 10
27.2556825
 20
11.82635399999998
 30
0.0
 11
27.64391149999999
 21
13.275243
 31
0.0
  0
LINE
  5
1F9
330
1E
100
AcDbEntity
  8
CSLAYER1
 62
     4
100
AcDbLine
 10
27.2556825
 20
18.826354
 30
0.0
 11
26.86745399999999
 21
17.37746549999999
 31
0.0
  0
LINE
  5
1FA
330
1E
100
AcDbEntity
  8
CSLAYER1
 62
     4
100
AcDbLine
 10
27.2556825
 20
18.826354
 30
0.0
 11
27.64391149999999
 21
17.37746549999999
 31
0.0
  0
LINE
  5
1FB
330
1E
100
AcDbEntity
  8
CSLAYER1
 62
     4
100
AcDbLine
 10
32.268799
 20
11.82635399999998
 30
0.0
 11
26.7556825
 21
11.82635399999998
 31
0.0
  0
LINE
  5
1FC
330
1E
100
AcDbEntity
  8
CSLAYER1
 62
     4
100
AcDbLine
 10
32.268799
 20
18.826354
 30
0.0
 11
26.7556825
 21
18.826354
 31
0.0
  0
ENDSEC
  0
SECTION
  2
OBJECTS
  0
DICTIONARY
  5
C
330
0
100
AcDbDictionary
  3
ACAD_GROUP
350
D
  3
ACAD_LAYOUT
350
19
  3
ACAD_MLINESTYLE
350
16
  3
ACAD_PLOTSETTINGS
350
18
1001
ACAD
1000
TREAT_AS_HARD
1070
     0
1000
TREAT_AS_HARD
1070
     0
1000
TREAT_AS_HARD
1070
     0
  0
DICTIONARY
  5
176
330
1E
100
AcDbDictionary
  3
ACAD_LAYOUTSELFREF
350
201
1001
ACAD
1000
TREAT_AS_HARD
1070
     0
1000
TREAT_AS_HARD
1070
     0
  0
DICTIONARY
  5
174
330
1A
100
AcDbDictionary
  3
ACAD_LAYOUTSELFREF
350
200
1001
ACAD
1000
TREAT_AS_HARD
1070
     0
1000
TREAT_AS_HARD
1070
     0
  0
DICTIONARY
  5
D
102
{ACAD_REACTORS
330
C
102
}
330
C
100
AcDbDictionary
1001
ACAD
1000
TREAT_AS_HARD
1070
     0
1000
TREAT_AS_HARD
1070
     0
1000
TREAT_AS_HARD
1070
     0
  0
DICTIONARY
  5
19
102
{ACAD_REACTORS
330
C
102
}
330
C
100
AcDbDictionary
1001
ACAD
1000
TREAT_AS_HARD
1070
     0
1000
TREAT_AS_HARD
1070
     0
1000
TREAT_AS_HARD
1070
     0
  0
DICTIONARY
  5
16
102
{ACAD_REACTORS
330
C
102
}
330
C
100
AcDbDictionary
  3
STANDARD
350
17
1001
ACAD
1000
TREAT_AS_HARD
1070
     0
1000
TREAT_AS_HARD
1070
     0
1000
TREAT_AS_HARD
1070
     0
  0
DICTIONARY
  5
18
102
{ACAD_REACTORS
330
C
102
}
330
C
100
AcDbDictionary
1001
ACAD
1000
TREAT_AS_HARD
1070
     0
1000
TREAT_AS_HARD
1070
     0
1000
TREAT_AS_HARD
1070
     0
  0
XRECORD
  5
201
102
{ACAD_REACTORS
330
176
102
}
330
176
100
AcDbXrecord
340
1E
  0
XRECORD
  5
200
102
{ACAD_REACTORS
330
174
102
}
330
174
100
AcDbXrecord
340
1A
  0
MLINESTYLE
  5
17
102
{ACAD_REACTORS
330
16
102
}
330
16
100
AcDbMlineStyle
  2
STANDARD
 70
     0
  3

 62
   256
 51
90.0
 52
90.0
 71
     2
 49
0.5
 62
   256
  6
BYLAYER
 49
-0.5
 62
   256
  6
BYLAYER
  0
ENDSEC
  0
EOF
